ISO-10303-21;
HEADER;
/* Generated by software containing ST-Developer
 * from STEP Tools, Inc. (www.steptools.com) 
 */

FILE_DESCRIPTION(
/* description */ (''),
/* implementation_level */ '2;1');

FILE_NAME(
/* name */ 
'H:\\Eigene Dateien\\CAD Workspace Vault\\CAD\\E_3_Nocken\\E_3_01_Aufs
chwei\X\DFnocke\\12_Einlegeteil\\E_3_01_12_19_00_WKZ-0039.stp',
/* time_stamp */ '2021-04-13T10:36:42+02:00',
/* author */ ('DFischer'),
/* organization */ (''),
/* preprocessor_version */ 'ST-DEVELOPER v16.13',
/* originating_system */ 'Autodesk Inventor 2018',
/* authorisation */ '');

FILE_SCHEMA (('AUTOMOTIVE_DESIGN { 1 0 10303 214 3 1 1 }'));
ENDSEC;

DATA;
#10=MECHANICAL_DESIGN_GEOMETRIC_PRESENTATION_REPRESENTATION('',(#34,#33,
#32),#627);
#11=ITEM_DEFINED_TRANSFORMATION($,$,#394,#428);
#12=ITEM_DEFINED_TRANSFORMATION($,$,#413,#429);
#13=ITEM_DEFINED_TRANSFORMATION($,$,#413,#430);
#14=(
REPRESENTATION_RELATIONSHIP($,$,#642,#641)
REPRESENTATION_RELATIONSHIP_WITH_TRANSFORMATION(#11)
SHAPE_REPRESENTATION_RELATIONSHIP()
);
#15=(
REPRESENTATION_RELATIONSHIP($,$,#643,#641)
REPRESENTATION_RELATIONSHIP_WITH_TRANSFORMATION(#12)
SHAPE_REPRESENTATION_RELATIONSHIP()
);
#16=(
REPRESENTATION_RELATIONSHIP($,$,#643,#641)
REPRESENTATION_RELATIONSHIP_WITH_TRANSFORMATION(#13)
SHAPE_REPRESENTATION_RELATIONSHIP()
);
#17=CONTEXT_DEPENDENT_SHAPE_REPRESENTATION(#14,#638);
#18=CONTEXT_DEPENDENT_SHAPE_REPRESENTATION(#15,#639);
#19=CONTEXT_DEPENDENT_SHAPE_REPRESENTATION(#16,#640);
#20=NEXT_ASSEMBLY_USAGE_OCCURRENCE('E_3_01_12_19_00_WKZ-0039_Teil1:1',
'E_3_01_12_19_00_WKZ-0039_Teil1:1','E_3_01_12_19_00_WKZ-0039_Teil1:1',#645,
#646,'E_3_01_12_19_00_WKZ-0039_Teil1:1');
#21=NEXT_ASSEMBLY_USAGE_OCCURRENCE('E_3_01_12_19_00_WKZ-0039_Teil2:1',
'E_3_01_12_19_00_WKZ-0039_Teil2:1','E_3_01_12_19_00_WKZ-0039_Teil2:1',#645,
#647,'E_3_01_12_19_00_WKZ-0039_Teil2:1');
#22=NEXT_ASSEMBLY_USAGE_OCCURRENCE('E_3_01_12_19_00_WKZ-0039_Teil2:2',
'E_3_01_12_19_00_WKZ-0039_Teil2:2','E_3_01_12_19_00_WKZ-0039_Teil2:2',#645,
#647,'E_3_01_12_19_00_WKZ-0039_Teil2:2');
#23=CONICAL_SURFACE('',#414,3.225,0.785398163397449);
#24=CONICAL_SURFACE('',#421,2.192,0.785398163397448);
#25=CONICAL_SURFACE('',#425,2.192,0.785398163397448);
#26=SHAPE_REPRESENTATION_RELATIONSHIP('SRR','None',#642,#28);
#27=SHAPE_REPRESENTATION_RELATIONSHIP('SRR','None',#643,#29);
#28=ADVANCED_BREP_SHAPE_REPRESENTATION('',(#30),#625);
#29=ADVANCED_BREP_SHAPE_REPRESENTATION('',(#31),#626);
#30=MANIFOLD_SOLID_BREP('Volumenk\X\F6rper1',#329);
#31=MANIFOLD_SOLID_BREP('Volumenk\X\F6rper1',#330);
#32=STYLED_ITEM('',(#355),#314);
#33=STYLED_ITEM('',(#354),#30);
#34=STYLED_ITEM('',(#356),#31);
#35=LINE('',#548,#59);
#36=LINE('',#550,#60);
#37=LINE('',#552,#61);
#38=LINE('',#554,#62);
#39=LINE('',#556,#63);
#40=LINE('',#558,#64);
#41=LINE('',#560,#65);
#42=LINE('',#561,#66);
#43=LINE('',#565,#67);
#44=LINE('',#566,#68);
#45=LINE('',#567,#69);
#46=LINE('',#570,#70);
#47=LINE('',#571,#71);
#48=LINE('',#574,#72);
#49=LINE('',#575,#73);
#50=LINE('',#578,#74);
#51=LINE('',#579,#75);
#52=LINE('',#582,#76);
#53=LINE('',#583,#77);
#54=LINE('',#586,#78);
#55=LINE('',#587,#79);
#56=LINE('',#590,#80);
#57=LINE('',#591,#81);
#58=LINE('',#593,#82);
#59=VECTOR('',#453,10.);
#60=VECTOR('',#454,10.);
#61=VECTOR('',#455,10.);
#62=VECTOR('',#456,10.);
#63=VECTOR('',#457,10.);
#64=VECTOR('',#458,10.);
#65=VECTOR('',#459,10.);
#66=VECTOR('',#460,10.);
#67=VECTOR('',#463,10.);
#68=VECTOR('',#464,10.);
#69=VECTOR('',#465,10.);
#70=VECTOR('',#468,10.);
#71=VECTOR('',#469,10.);
#72=VECTOR('',#472,10.);
#73=VECTOR('',#473,10.);
#74=VECTOR('',#476,10.);
#75=VECTOR('',#477,10.);
#76=VECTOR('',#480,10.);
#77=VECTOR('',#481,10.);
#78=VECTOR('',#484,10.);
#79=VECTOR('',#485,10.);
#80=VECTOR('',#488,10.);
#81=VECTOR('',#489,10.);
#82=VECTOR('',#492,10.);
#83=PLANE('',#398);
#84=PLANE('',#402);
#85=PLANE('',#403);
#86=PLANE('',#404);
#87=PLANE('',#405);
#88=PLANE('',#406);
#89=PLANE('',#407);
#90=PLANE('',#408);
#91=PLANE('',#409);
#92=PLANE('',#410);
#93=PLANE('',#411);
#94=PLANE('',#412);
#95=PLANE('',#417);
#96=PLANE('',#427);
#97=FACE_BOUND('',#130,.T.);
#98=FACE_BOUND('',#133,.T.);
#99=FACE_BOUND('',#142,.T.);
#100=FACE_BOUND('',#143,.T.);
#101=FACE_BOUND('',#148,.T.);
#102=FACE_BOUND('',#150,.T.);
#103=FACE_BOUND('',#152,.T.);
#104=FACE_BOUND('',#154,.T.);
#105=FACE_BOUND('',#156,.T.);
#106=FACE_BOUND('',#158,.T.);
#107=FACE_BOUND('',#160,.T.);
#108=FACE_OUTER_BOUND('',#129,.T.);
#109=FACE_OUTER_BOUND('',#131,.T.);
#110=FACE_OUTER_BOUND('',#132,.T.);
#111=FACE_OUTER_BOUND('',#134,.T.);
#112=FACE_OUTER_BOUND('',#135,.T.);
#113=FACE_OUTER_BOUND('',#136,.T.);
#114=FACE_OUTER_BOUND('',#137,.T.);
#115=FACE_OUTER_BOUND('',#138,.T.);
#116=FACE_OUTER_BOUND('',#139,.T.);
#117=FACE_OUTER_BOUND('',#140,.T.);
#118=FACE_OUTER_BOUND('',#141,.T.);
#119=FACE_OUTER_BOUND('',#144,.T.);
#120=FACE_OUTER_BOUND('',#145,.T.);
#121=FACE_OUTER_BOUND('',#146,.T.);
#122=FACE_OUTER_BOUND('',#147,.T.);
#123=FACE_OUTER_BOUND('',#149,.T.);
#124=FACE_OUTER_BOUND('',#151,.T.);
#125=FACE_OUTER_BOUND('',#153,.T.);
#126=FACE_OUTER_BOUND('',#155,.T.);
#127=FACE_OUTER_BOUND('',#157,.T.);
#128=FACE_OUTER_BOUND('',#159,.T.);
#129=EDGE_LOOP('',(#234));
#130=EDGE_LOOP('',(#235));
#131=EDGE_LOOP('',(#236));
#132=EDGE_LOOP('',(#237));
#133=EDGE_LOOP('',(#238));
#134=EDGE_LOOP('',(#239));
#135=EDGE_LOOP('',(#240,#241,#242,#243,#244,#245,#246,#247));
#136=EDGE_LOOP('',(#248,#249,#250,#251));
#137=EDGE_LOOP('',(#252,#253,#254,#255));
#138=EDGE_LOOP('',(#256,#257,#258,#259));
#139=EDGE_LOOP('',(#260,#261,#262,#263));
#140=EDGE_LOOP('',(#264,#265,#266,#267));
#141=EDGE_LOOP('',(#268,#269,#270,#271));
#142=EDGE_LOOP('',(#272));
#143=EDGE_LOOP('',(#273));
#144=EDGE_LOOP('',(#274,#275,#276,#277));
#145=EDGE_LOOP('',(#278,#279,#280,#281));
#146=EDGE_LOOP('',(#282,#283,#284,#285,#286,#287,#288,#289));
#147=EDGE_LOOP('',(#290));
#148=EDGE_LOOP('',(#291));
#149=EDGE_LOOP('',(#292));
#150=EDGE_LOOP('',(#293));
#151=EDGE_LOOP('',(#294));
#152=EDGE_LOOP('',(#295));
#153=EDGE_LOOP('',(#296));
#154=EDGE_LOOP('',(#297));
#155=EDGE_LOOP('',(#298));
#156=EDGE_LOOP('',(#299));
#157=EDGE_LOOP('',(#300));
#158=EDGE_LOOP('',(#301));
#159=EDGE_LOOP('',(#302));
#160=EDGE_LOOP('',(#303));
#161=CIRCLE('',#396,3.35);
#162=CIRCLE('',#397,3.35);
#163=CIRCLE('',#400,3.35);
#164=CIRCLE('',#401,3.35);
#165=CIRCLE('',#415,3.35);
#166=CIRCLE('',#416,3.1);
#167=CIRCLE('',#418,2.317);
#168=CIRCLE('',#420,3.35);
#169=CIRCLE('',#422,2.067);
#170=CIRCLE('',#424,2.067);
#171=CIRCLE('',#426,2.317);
#172=VERTEX_POINT('',#534);
#173=VERTEX_POINT('',#536);
#174=VERTEX_POINT('',#540);
#175=VERTEX_POINT('',#542);
#176=VERTEX_POINT('',#546);
#177=VERTEX_POINT('',#547);
#178=VERTEX_POINT('',#549);
#179=VERTEX_POINT('',#551);
#180=VERTEX_POINT('',#553);
#181=VERTEX_POINT('',#555);
#182=VERTEX_POINT('',#557);
#183=VERTEX_POINT('',#559);
#184=VERTEX_POINT('',#563);
#185=VERTEX_POINT('',#564);
#186=VERTEX_POINT('',#569);
#187=VERTEX_POINT('',#573);
#188=VERTEX_POINT('',#577);
#189=VERTEX_POINT('',#581);
#190=VERTEX_POINT('',#585);
#191=VERTEX_POINT('',#589);
#192=VERTEX_POINT('',#597);
#193=VERTEX_POINT('',#599);
#194=VERTEX_POINT('',#602);
#195=VERTEX_POINT('',#605);
#196=VERTEX_POINT('',#608);
#197=VERTEX_POINT('',#611);
#198=VERTEX_POINT('',#614);
#199=EDGE_CURVE('',#172,#172,#161,.T.);
#200=EDGE_CURVE('',#173,#173,#162,.T.);
#201=EDGE_CURVE('',#174,#174,#163,.T.);
#202=EDGE_CURVE('',#175,#175,#164,.T.);
#203=EDGE_CURVE('',#176,#177,#35,.T.);
#204=EDGE_CURVE('',#178,#176,#36,.T.);
#205=EDGE_CURVE('',#179,#178,#37,.T.);
#206=EDGE_CURVE('',#180,#179,#38,.T.);
#207=EDGE_CURVE('',#181,#180,#39,.T.);
#208=EDGE_CURVE('',#182,#181,#40,.T.);
#209=EDGE_CURVE('',#183,#182,#41,.T.);
#210=EDGE_CURVE('',#177,#183,#42,.T.);
#211=EDGE_CURVE('',#184,#185,#43,.T.);
#212=EDGE_CURVE('',#185,#179,#44,.T.);
#213=EDGE_CURVE('',#184,#178,#45,.T.);
#214=EDGE_CURVE('',#185,#186,#46,.T.);
#215=EDGE_CURVE('',#186,#180,#47,.T.);
#216=EDGE_CURVE('',#186,#187,#48,.T.);
#217=EDGE_CURVE('',#187,#181,#49,.T.);
#218=EDGE_CURVE('',#187,#188,#50,.T.);
#219=EDGE_CURVE('',#188,#182,#51,.T.);
#220=EDGE_CURVE('',#188,#189,#52,.T.);
#221=EDGE_CURVE('',#189,#183,#53,.T.);
#222=EDGE_CURVE('',#189,#190,#54,.T.);
#223=EDGE_CURVE('',#190,#177,#55,.T.);
#224=EDGE_CURVE('',#190,#191,#56,.T.);
#225=EDGE_CURVE('',#176,#191,#57,.T.);
#226=EDGE_CURVE('',#191,#184,#58,.T.);
#227=EDGE_CURVE('',#192,#192,#165,.T.);
#228=EDGE_CURVE('',#193,#193,#166,.T.);
#229=EDGE_CURVE('',#194,#194,#167,.T.);
#230=EDGE_CURVE('',#195,#195,#168,.T.);
#231=EDGE_CURVE('',#196,#196,#169,.T.);
#232=EDGE_CURVE('',#197,#197,#170,.T.);
#233=EDGE_CURVE('',#198,#198,#171,.T.);
#234=ORIENTED_EDGE('',*,*,#199,.F.);
#235=ORIENTED_EDGE('',*,*,#200,.F.);
#236=ORIENTED_EDGE('',*,*,#199,.T.);
#237=ORIENTED_EDGE('',*,*,#201,.F.);
#238=ORIENTED_EDGE('',*,*,#202,.F.);
#239=ORIENTED_EDGE('',*,*,#201,.T.);
#240=ORIENTED_EDGE('',*,*,#203,.F.);
#241=ORIENTED_EDGE('',*,*,#204,.F.);
#242=ORIENTED_EDGE('',*,*,#205,.F.);
#243=ORIENTED_EDGE('',*,*,#206,.F.);
#244=ORIENTED_EDGE('',*,*,#207,.F.);
#245=ORIENTED_EDGE('',*,*,#208,.F.);
#246=ORIENTED_EDGE('',*,*,#209,.F.);
#247=ORIENTED_EDGE('',*,*,#210,.F.);
#248=ORIENTED_EDGE('',*,*,#211,.T.);
#249=ORIENTED_EDGE('',*,*,#212,.T.);
#250=ORIENTED_EDGE('',*,*,#205,.T.);
#251=ORIENTED_EDGE('',*,*,#213,.F.);
#252=ORIENTED_EDGE('',*,*,#214,.T.);
#253=ORIENTED_EDGE('',*,*,#215,.T.);
#254=ORIENTED_EDGE('',*,*,#206,.T.);
#255=ORIENTED_EDGE('',*,*,#212,.F.);
#256=ORIENTED_EDGE('',*,*,#216,.T.);
#257=ORIENTED_EDGE('',*,*,#217,.T.);
#258=ORIENTED_EDGE('',*,*,#207,.T.);
#259=ORIENTED_EDGE('',*,*,#215,.F.);
#260=ORIENTED_EDGE('',*,*,#218,.T.);
#261=ORIENTED_EDGE('',*,*,#219,.T.);
#262=ORIENTED_EDGE('',*,*,#208,.T.);
#263=ORIENTED_EDGE('',*,*,#217,.F.);
#264=ORIENTED_EDGE('',*,*,#220,.T.);
#265=ORIENTED_EDGE('',*,*,#221,.T.);
#266=ORIENTED_EDGE('',*,*,#209,.T.);
#267=ORIENTED_EDGE('',*,*,#219,.F.);
#268=ORIENTED_EDGE('',*,*,#222,.T.);
#269=ORIENTED_EDGE('',*,*,#223,.T.);
#270=ORIENTED_EDGE('',*,*,#210,.T.);
#271=ORIENTED_EDGE('',*,*,#221,.F.);
#272=ORIENTED_EDGE('',*,*,#200,.T.);
#273=ORIENTED_EDGE('',*,*,#202,.T.);
#274=ORIENTED_EDGE('',*,*,#224,.T.);
#275=ORIENTED_EDGE('',*,*,#225,.F.);
#276=ORIENTED_EDGE('',*,*,#203,.T.);
#277=ORIENTED_EDGE('',*,*,#223,.F.);
#278=ORIENTED_EDGE('',*,*,#226,.T.);
#279=ORIENTED_EDGE('',*,*,#213,.T.);
#280=ORIENTED_EDGE('',*,*,#204,.T.);
#281=ORIENTED_EDGE('',*,*,#225,.T.);
#282=ORIENTED_EDGE('',*,*,#211,.F.);
#283=ORIENTED_EDGE('',*,*,#226,.F.);
#284=ORIENTED_EDGE('',*,*,#224,.F.);
#285=ORIENTED_EDGE('',*,*,#222,.F.);
#286=ORIENTED_EDGE('',*,*,#220,.F.);
#287=ORIENTED_EDGE('',*,*,#218,.F.);
#288=ORIENTED_EDGE('',*,*,#216,.F.);
#289=ORIENTED_EDGE('',*,*,#214,.F.);
#290=ORIENTED_EDGE('',*,*,#227,.T.);
#291=ORIENTED_EDGE('',*,*,#228,.T.);
#292=ORIENTED_EDGE('',*,*,#228,.F.);
#293=ORIENTED_EDGE('',*,*,#229,.F.);
#294=ORIENTED_EDGE('',*,*,#230,.T.);
#295=ORIENTED_EDGE('',*,*,#227,.F.);
#296=ORIENTED_EDGE('',*,*,#231,.T.);
#297=ORIENTED_EDGE('',*,*,#229,.T.);
#298=ORIENTED_EDGE('',*,*,#232,.F.);
#299=ORIENTED_EDGE('',*,*,#231,.F.);
#300=ORIENTED_EDGE('',*,*,#232,.T.);
#301=ORIENTED_EDGE('',*,*,#233,.T.);
#302=ORIENTED_EDGE('',*,*,#230,.F.);
#303=ORIENTED_EDGE('',*,*,#233,.F.);
#304=CYLINDRICAL_SURFACE('',#395,3.35);
#305=CYLINDRICAL_SURFACE('',#399,3.35);
#306=CYLINDRICAL_SURFACE('',#419,3.35);
#307=CYLINDRICAL_SURFACE('',#423,2.067);
#308=ADVANCED_FACE('',(#108,#97),#304,.F.);
#309=ADVANCED_FACE('',(#109),#83,.F.);
#310=ADVANCED_FACE('',(#110,#98),#305,.F.);
#311=ADVANCED_FACE('',(#111),#84,.F.);
#312=ADVANCED_FACE('',(#112),#85,.F.);
#313=ADVANCED_FACE('',(#113),#86,.T.);
#314=ADVANCED_FACE('',(#114),#87,.T.);
#315=ADVANCED_FACE('',(#115),#88,.T.);
#316=ADVANCED_FACE('',(#116),#89,.T.);
#317=ADVANCED_FACE('',(#117),#90,.T.);
#318=ADVANCED_FACE('',(#118,#99,#100),#91,.T.);
#319=ADVANCED_FACE('',(#119),#92,.T.);
#320=ADVANCED_FACE('',(#120),#93,.T.);
#321=ADVANCED_FACE('',(#121),#94,.T.);
#322=ADVANCED_FACE('',(#122,#101),#23,.T.);
#323=ADVANCED_FACE('',(#123,#102),#95,.T.);
#324=ADVANCED_FACE('',(#124,#103),#306,.T.);
#325=ADVANCED_FACE('',(#125,#104),#24,.F.);
#326=ADVANCED_FACE('',(#126,#105),#307,.F.);
#327=ADVANCED_FACE('',(#127,#106),#25,.F.);
#328=ADVANCED_FACE('',(#128,#107),#96,.F.);
#329=CLOSED_SHELL('',(#308,#309,#310,#311,#312,#313,#314,#315,#316,#317,
#318,#319,#320,#321));
#330=CLOSED_SHELL('',(#322,#323,#324,#325,#326,#327,#328));
#331=DERIVED_UNIT_ELEMENT(#335,0.);
#332=DERIVED_UNIT_ELEMENT(#629,0.);
#333=DERIVED_UNIT_ELEMENT(#335,0.);
#334=DERIVED_UNIT_ELEMENT(#629,0.);
#335=(
MASS_UNIT()
NAMED_UNIT(*)
SI_UNIT($,.GRAM.)
);
#336=DERIVED_UNIT((#331,#332));
#337=DERIVED_UNIT((#333,#334));
#338=MEASURE_REPRESENTATION_ITEM('density measure',
POSITIVE_RATIO_MEASURE(8.03),#336);
#339=MEASURE_REPRESENTATION_ITEM('density measure',
POSITIVE_RATIO_MEASURE(8.03),#337);
#340=PROPERTY_DEFINITION_REPRESENTATION(#350,#344);
#341=PROPERTY_DEFINITION_REPRESENTATION(#351,#345);
#342=PROPERTY_DEFINITION_REPRESENTATION(#352,#346);
#343=PROPERTY_DEFINITION_REPRESENTATION(#353,#347);
#344=REPRESENTATION('material name',(#348),#625);
#345=REPRESENTATION('density',(#338),#625);
#346=REPRESENTATION('material name',(#349),#626);
#347=REPRESENTATION('density',(#339),#626);
#348=DESCRIPTIVE_REPRESENTATION_ITEM('1.4301','1.4301');
#349=DESCRIPTIVE_REPRESENTATION_ITEM('1.4301','1.4301');
#350=PROPERTY_DEFINITION('material property','material name',#646);
#351=PROPERTY_DEFINITION('material property','density of part',#646);
#352=PROPERTY_DEFINITION('material property','material name',#647);
#353=PROPERTY_DEFINITION('material property','density of part',#647);
#354=PRESENTATION_STYLE_ASSIGNMENT((#357));
#355=PRESENTATION_STYLE_ASSIGNMENT((#358));
#356=PRESENTATION_STYLE_ASSIGNMENT((#359));
#357=SURFACE_STYLE_USAGE(.BOTH.,#360);
#358=SURFACE_STYLE_USAGE(.BOTH.,#361);
#359=SURFACE_STYLE_USAGE(.BOTH.,#362);
#360=SURFACE_SIDE_STYLE('',(#363));
#361=SURFACE_SIDE_STYLE('',(#364));
#362=SURFACE_SIDE_STYLE('',(#365));
#363=SURFACE_STYLE_FILL_AREA(#366);
#364=SURFACE_STYLE_FILL_AREA(#367);
#365=SURFACE_STYLE_FILL_AREA(#368);
#366=FILL_AREA_STYLE('',(#369));
#367=FILL_AREA_STYLE('',(#370));
#368=FILL_AREA_STYLE('',(#371));
#369=FILL_AREA_STYLE_COLOUR('',#372);
#370=FILL_AREA_STYLE_COLOUR('',#373);
#371=FILL_AREA_STYLE_COLOUR('',#374);
#372=COLOUR_RGB('',0.92156862745098,0.92156862745098,0.92156862745098);
#373=COLOUR_RGB('',0.16078431372549,0.16078431372549,0.16078431372549);
#374=COLOUR_RGB('',0.796078431372549,0.603921568627451,0.231372549019608);
#375=DATE_TIME_ROLE('creation_date');
#376=DATE_TIME_ROLE('creation_date');
#377=DATE_TIME_ROLE('creation_date');
#378=APPLIED_DATE_AND_TIME_ASSIGNMENT(#381,#375,(#645));
#379=APPLIED_DATE_AND_TIME_ASSIGNMENT(#382,#376,(#646));
#380=APPLIED_DATE_AND_TIME_ASSIGNMENT(#383,#377,(#647));
#381=DATE_AND_TIME(#384,#387);
#382=DATE_AND_TIME(#385,#388);
#383=DATE_AND_TIME(#386,#389);
#384=CALENDAR_DATE(2011,27,10);
#385=CALENDAR_DATE(2011,26,10);
#386=CALENDAR_DATE(2011,27,10);
#387=LOCAL_TIME(10,25,39.,#390);
#388=LOCAL_TIME(14,53,0.,#391);
#389=LOCAL_TIME(9,45,40.,#392);
#390=COORDINATED_UNIVERSAL_TIME_OFFSET(0,0,.BEHIND.);
#391=COORDINATED_UNIVERSAL_TIME_OFFSET(0,0,.BEHIND.);
#392=COORDINATED_UNIVERSAL_TIME_OFFSET(0,0,.BEHIND.);
#393=AXIS2_PLACEMENT_3D('placement',#531,#431,#432);
#394=AXIS2_PLACEMENT_3D('placement',#532,#433,#434);
#395=AXIS2_PLACEMENT_3D('',#533,#435,#436);
#396=AXIS2_PLACEMENT_3D('',#535,#437,#438);
#397=AXIS2_PLACEMENT_3D('',#537,#439,#440);
#398=AXIS2_PLACEMENT_3D('',#538,#441,#442);
#399=AXIS2_PLACEMENT_3D('',#539,#443,#444);
#400=AXIS2_PLACEMENT_3D('',#541,#445,#446);
#401=AXIS2_PLACEMENT_3D('',#543,#447,#448);
#402=AXIS2_PLACEMENT_3D('',#544,#449,#450);
#403=AXIS2_PLACEMENT_3D('',#545,#451,#452);
#404=AXIS2_PLACEMENT_3D('',#562,#461,#462);
#405=AXIS2_PLACEMENT_3D('',#568,#466,#467);
#406=AXIS2_PLACEMENT_3D('',#572,#470,#471);
#407=AXIS2_PLACEMENT_3D('',#576,#474,#475);
#408=AXIS2_PLACEMENT_3D('',#580,#478,#479);
#409=AXIS2_PLACEMENT_3D('',#584,#482,#483);
#410=AXIS2_PLACEMENT_3D('',#588,#486,#487);
#411=AXIS2_PLACEMENT_3D('',#592,#490,#491);
#412=AXIS2_PLACEMENT_3D('',#594,#493,#494);
#413=AXIS2_PLACEMENT_3D('placement',#595,#495,#496);
#414=AXIS2_PLACEMENT_3D('',#596,#497,#498);
#415=AXIS2_PLACEMENT_3D('',#598,#499,#500);
#416=AXIS2_PLACEMENT_3D('',#600,#501,#502);
#417=AXIS2_PLACEMENT_3D('',#601,#503,#504);
#418=AXIS2_PLACEMENT_3D('',#603,#505,#506);
#419=AXIS2_PLACEMENT_3D('',#604,#507,#508);
#420=AXIS2_PLACEMENT_3D('',#606,#509,#510);
#421=AXIS2_PLACEMENT_3D('',#607,#511,#512);
#422=AXIS2_PLACEMENT_3D('',#609,#513,#514);
#423=AXIS2_PLACEMENT_3D('',#610,#515,#516);
#424=AXIS2_PLACEMENT_3D('',#612,#517,#518);
#425=AXIS2_PLACEMENT_3D('',#613,#519,#520);
#426=AXIS2_PLACEMENT_3D('',#615,#521,#522);
#427=AXIS2_PLACEMENT_3D('',#616,#523,#524);
#428=AXIS2_PLACEMENT_3D('',#617,#525,#526);
#429=AXIS2_PLACEMENT_3D('',#618,#527,#528);
#430=AXIS2_PLACEMENT_3D('',#619,#529,#530);
#431=DIRECTION('axis',(0.,0.,1.));
#432=DIRECTION('refdir',(1.,0.,0.));
#433=DIRECTION('axis',(0.,0.,1.));
#434=DIRECTION('refdir',(1.,0.,0.));
#435=DIRECTION('center_axis',(0.,-1.,0.));
#436=DIRECTION('ref_axis',(-1.,0.,0.));
#437=DIRECTION('center_axis',(0.,1.,0.));
#438=DIRECTION('ref_axis',(-1.,0.,0.));
#439=DIRECTION('center_axis',(0.,-1.,0.));
#440=DIRECTION('ref_axis',(-1.,0.,0.));
#441=DIRECTION('center_axis',(0.,-1.,0.));
#442=DIRECTION('ref_axis',(0.,0.,-1.));
#443=DIRECTION('center_axis',(0.,-1.,0.));
#444=DIRECTION('ref_axis',(-1.,0.,0.));
#445=DIRECTION('center_axis',(0.,1.,0.));
#446=DIRECTION('ref_axis',(-1.,0.,0.));
#447=DIRECTION('center_axis',(0.,-1.,0.));
#448=DIRECTION('ref_axis',(-1.,0.,0.));
#449=DIRECTION('center_axis',(0.,-1.,0.));
#450=DIRECTION('ref_axis',(0.,0.,-1.));
#451=DIRECTION('center_axis',(0.,0.,1.));
#452=DIRECTION('ref_axis',(1.,0.,0.));
#453=DIRECTION('',(1.17190208154878E-15,1.,0.));
#454=DIRECTION('',(1.,0.,0.));
#455=DIRECTION('',(0.,1.,0.));
#456=DIRECTION('',(1.,0.,0.));
#457=DIRECTION('',(0.,-1.,0.));
#458=DIRECTION('',(1.,0.,0.));
#459=DIRECTION('',(1.17190208154878E-15,-1.,0.));
#460=DIRECTION('',(-1.,0.,0.));
#461=DIRECTION('center_axis',(1.,0.,0.));
#462=DIRECTION('ref_axis',(0.,0.,-1.));
#463=DIRECTION('',(0.,-1.,0.));
#464=DIRECTION('',(0.,0.,-1.));
#465=DIRECTION('',(0.,0.,-1.));
#466=DIRECTION('center_axis',(0.,-1.,0.));
#467=DIRECTION('ref_axis',(0.,0.,-1.));
#468=DIRECTION('',(-1.,0.,0.));
#469=DIRECTION('',(0.,0.,-1.));
#470=DIRECTION('center_axis',(-1.,0.,0.));
#471=DIRECTION('ref_axis',(0.,0.,1.));
#472=DIRECTION('',(0.,1.,0.));
#473=DIRECTION('',(0.,0.,-1.));
#474=DIRECTION('center_axis',(0.,-1.,0.));
#475=DIRECTION('ref_axis',(0.,0.,-1.));
#476=DIRECTION('',(-1.,0.,0.));
#477=DIRECTION('',(0.,0.,-1.));
#478=DIRECTION('center_axis',(-1.,-1.17190208154878E-15,0.));
#479=DIRECTION('ref_axis',(0.,0.,1.));
#480=DIRECTION('',(-1.17190208154878E-15,1.,0.));
#481=DIRECTION('',(0.,0.,-1.));
#482=DIRECTION('center_axis',(0.,1.,0.));
#483=DIRECTION('ref_axis',(0.,0.,1.));
#484=DIRECTION('',(1.,0.,0.));
#485=DIRECTION('',(0.,0.,-1.));
#486=DIRECTION('center_axis',(1.,-1.17190208154878E-15,0.));
#487=DIRECTION('ref_axis',(0.,0.,-1.));
#488=DIRECTION('',(-1.17190208154878E-15,-1.,0.));
#489=DIRECTION('',(0.,0.,1.));
#490=DIRECTION('center_axis',(0.,-1.,0.));
#491=DIRECTION('ref_axis',(0.,0.,-1.));
#492=DIRECTION('',(-1.,0.,0.));
#493=DIRECTION('center_axis',(0.,0.,1.));
#494=DIRECTION('ref_axis',(1.,0.,0.));
#495=DIRECTION('axis',(0.,0.,1.));
#496=DIRECTION('refdir',(1.,0.,0.));
#497=DIRECTION('center_axis',(0.,0.,1.));
#498=DIRECTION('ref_axis',(-1.,0.,0.));
#499=DIRECTION('center_axis',(0.,0.,-1.));
#500=DIRECTION('ref_axis',(-1.,0.,0.));
#501=DIRECTION('center_axis',(0.,0.,1.));
#502=DIRECTION('ref_axis',(-1.,0.,0.));
#503=DIRECTION('center_axis',(0.,0.,-1.));
#504=DIRECTION('ref_axis',(-1.,0.,0.));
#505=DIRECTION('center_axis',(0.,0.,-1.));
#506=DIRECTION('ref_axis',(1.,0.,0.));
#507=DIRECTION('center_axis',(0.,0.,1.));
#508=DIRECTION('ref_axis',(-1.,0.,0.));
#509=DIRECTION('center_axis',(0.,0.,-1.));
#510=DIRECTION('ref_axis',(-1.,0.,0.));
#511=DIRECTION('center_axis',(0.,0.,-1.));
#512=DIRECTION('ref_axis',(1.,0.,0.));
#513=DIRECTION('center_axis',(0.,0.,1.));
#514=DIRECTION('ref_axis',(1.,0.,0.));
#515=DIRECTION('center_axis',(0.,0.,1.));
#516=DIRECTION('ref_axis',(1.,0.,0.));
#517=DIRECTION('center_axis',(0.,0.,-1.));
#518=DIRECTION('ref_axis',(-1.,0.,0.));
#519=DIRECTION('center_axis',(0.,0.,1.));
#520=DIRECTION('ref_axis',(-1.,0.,0.));
#521=DIRECTION('center_axis',(0.,0.,1.));
#522=DIRECTION('ref_axis',(-1.,0.,0.));
#523=DIRECTION('center_axis',(0.,0.,-1.));
#524=DIRECTION('ref_axis',(-1.,0.,0.));
#525=DIRECTION('',(0.,0.,1.));
#526=DIRECTION('',(1.,0.,0.));
#527=DIRECTION('',(1.37330855220548E-16,1.,1.23259516440783E-31));
#528=DIRECTION('',(0.86848318839773,-1.19269539007329E-16,0.495718621266656));
#529=DIRECTION('',(-1.66533453693773E-16,1.,1.08811203538961E-31));
#530=DIRECTION('',(1.,1.66533453693773E-16,4.16333634234434E-17));
#531=CARTESIAN_POINT('',(0.,0.,0.));
#532=CARTESIAN_POINT('',(0.,0.,0.));
#533=CARTESIAN_POINT('Origin',(0.,10.,-10.));
#534=CARTESIAN_POINT('',(3.35,2.5,-10.));
#535=CARTESIAN_POINT('Origin',(0.,2.5,-10.));
#536=CARTESIAN_POINT('',(3.35,10.,-10.));
#537=CARTESIAN_POINT('Origin',(0.,10.,-10.));
#538=CARTESIAN_POINT('Origin',(0.,2.5,-10.));
#539=CARTESIAN_POINT('Origin',(0.,10.,10.));
#540=CARTESIAN_POINT('',(3.35,2.5,10.));
#541=CARTESIAN_POINT('Origin',(0.,2.5,10.));
#542=CARTESIAN_POINT('',(3.35,10.,10.));
#543=CARTESIAN_POINT('Origin',(0.,10.,10.));
#544=CARTESIAN_POINT('Origin',(0.,2.5,10.));
#545=CARTESIAN_POINT('Origin',(1.38777878078145E-16,5.05,-25.));
#546=CARTESIAN_POINT('',(4.99999999999999,1.,-25.));
#547=CARTESIAN_POINT('',(5.,10.,-25.));
#548=CARTESIAN_POINT('',(5.,10.,-25.));
#549=CARTESIAN_POINT('',(3.99999999999999,1.,-25.));
#550=CARTESIAN_POINT('',(4.99999999999999,1.,-25.));
#551=CARTESIAN_POINT('',(3.99999999999999,-4.67924747463739E-16,-25.));
#552=CARTESIAN_POINT('',(3.99999999999999,1.,-25.));
#553=CARTESIAN_POINT('',(-3.99999999999999,-4.67924747463739E-16,-25.));
#554=CARTESIAN_POINT('',(3.99999999999999,-4.67924747463739E-16,-25.));
#555=CARTESIAN_POINT('',(-3.99999999999999,1.,-25.));
#556=CARTESIAN_POINT('',(-3.99999999999999,-4.67924747463739E-16,-25.));
#557=CARTESIAN_POINT('',(-4.99999999999999,1.,-25.));
#558=CARTESIAN_POINT('',(-3.99999999999999,1.,-25.));
#559=CARTESIAN_POINT('',(-5.,10.,-25.));
#560=CARTESIAN_POINT('',(-4.99999999999999,1.,-25.));
#561=CARTESIAN_POINT('',(-5.,10.,-25.));
#562=CARTESIAN_POINT('Origin',(3.99999999999999,1.,0.));
#563=CARTESIAN_POINT('',(3.99999999999999,1.,25.));
#564=CARTESIAN_POINT('',(3.99999999999999,-4.67924747463739E-16,25.));
#565=CARTESIAN_POINT('',(3.99999999999999,1.,25.));
#566=CARTESIAN_POINT('',(3.99999999999999,-4.67924747463739E-16,0.));
#567=CARTESIAN_POINT('',(3.99999999999999,1.,0.));
#568=CARTESIAN_POINT('Origin',(3.99999999999999,-4.67924747463739E-16,0.));
#569=CARTESIAN_POINT('',(-3.99999999999999,-4.67924747463739E-16,25.));
#570=CARTESIAN_POINT('',(3.99999999999999,-4.67924747463739E-16,25.));
#571=CARTESIAN_POINT('',(-3.99999999999999,-4.67924747463739E-16,0.));
#572=CARTESIAN_POINT('Origin',(-3.99999999999999,-4.67924747463739E-16,
0.));
#573=CARTESIAN_POINT('',(-3.99999999999999,1.,25.));
#574=CARTESIAN_POINT('',(-3.99999999999999,-4.67924747463739E-16,25.));
#575=CARTESIAN_POINT('',(-3.99999999999999,1.,0.));
#576=CARTESIAN_POINT('Origin',(-3.99999999999999,1.,0.));
#577=CARTESIAN_POINT('',(-4.99999999999999,1.,25.));
#578=CARTESIAN_POINT('',(-3.99999999999999,1.,25.));
#579=CARTESIAN_POINT('',(-4.99999999999999,1.,0.));
#580=CARTESIAN_POINT('Origin',(-4.99999999999999,1.,0.));
#581=CARTESIAN_POINT('',(-5.,10.,25.));
#582=CARTESIAN_POINT('',(-4.99999999999999,1.,25.));
#583=CARTESIAN_POINT('',(-5.,10.,0.));
#584=CARTESIAN_POINT('Origin',(-5.,10.,0.));
#585=CARTESIAN_POINT('',(5.,10.,25.));
#586=CARTESIAN_POINT('',(-5.,10.,25.));
#587=CARTESIAN_POINT('',(5.,10.,0.));
#588=CARTESIAN_POINT('Origin',(5.,10.,0.));
#589=CARTESIAN_POINT('',(4.99999999999999,1.,25.));
#590=CARTESIAN_POINT('',(5.,10.,25.));
#591=CARTESIAN_POINT('',(4.99999999999999,1.,0.));
#592=CARTESIAN_POINT('Origin',(4.99999999999999,1.,0.));
#593=CARTESIAN_POINT('',(4.99999999999999,1.,25.));
#594=CARTESIAN_POINT('Origin',(1.38777878078145E-16,5.05,25.));
#595=CARTESIAN_POINT('',(0.,0.,0.));
#596=CARTESIAN_POINT('Origin',(0.,0.,0.125));
#597=CARTESIAN_POINT('',(3.35,-4.10243128530496E-16,0.25));
#598=CARTESIAN_POINT('Origin',(0.,0.,0.25));
#599=CARTESIAN_POINT('',(3.1,3.79627969684937E-16,0.));
#600=CARTESIAN_POINT('Origin',(0.,0.,0.));
#601=CARTESIAN_POINT('Origin',(0.,0.,0.));
#602=CARTESIAN_POINT('',(-2.317,2.83741292180645E-16,0.));
#603=CARTESIAN_POINT('Origin',(0.,0.,0.));
#604=CARTESIAN_POINT('Origin',(0.,0.,0.));
#605=CARTESIAN_POINT('',(3.35,4.10256677714363E-16,7.5));
#606=CARTESIAN_POINT('Origin',(0.,0.,7.5));
#607=CARTESIAN_POINT('Origin',(0.,0.,0.125));
#608=CARTESIAN_POINT('',(-2.067,-2.53126133335085E-16,0.25));
#609=CARTESIAN_POINT('Origin',(0.,0.,0.25));
#610=CARTESIAN_POINT('Origin',(0.,0.,3.5));
#611=CARTESIAN_POINT('',(2.067,-2.53126133335085E-16,7.25));
#612=CARTESIAN_POINT('Origin',(0.,0.,7.25));
#613=CARTESIAN_POINT('Origin',(0.,0.,7.375));
#614=CARTESIAN_POINT('',(2.317,2.83741292180645E-16,7.5));
#615=CARTESIAN_POINT('Origin',(0.,0.,7.5));
#616=CARTESIAN_POINT('Origin',(0.,0.,7.5));
#617=CARTESIAN_POINT('',(11.1244657043776,-1.40157857479593,12.770416407901));
#618=CARTESIAN_POINT('',(11.1244657043776,1.09842142520407,22.770416407901));
#619=CARTESIAN_POINT('',(11.1244657043776,1.09842142520407,2.770416407901));
#620=UNCERTAINTY_MEASURE_WITH_UNIT(LENGTH_MEASURE(0.01),#628,
'DISTANCE_ACCURACY_VALUE',
'Maximum model space distance between geometric entities at asserted c
onnectivities');
#621=UNCERTAINTY_MEASURE_WITH_UNIT(LENGTH_MEASURE(0.01),#628,
'DISTANCE_ACCURACY_VALUE',
'Maximum model space distance between geometric entities at asserted c
onnectivities');
#622=UNCERTAINTY_MEASURE_WITH_UNIT(LENGTH_MEASURE(0.01),#628,
'DISTANCE_ACCURACY_VALUE',
'Maximum model space distance between geometric entities at asserted c
onnectivities');
#623=UNCERTAINTY_MEASURE_WITH_UNIT(LENGTH_MEASURE(0.01),#628,
'DISTANCE_ACCURACY_VALUE',
'Maximum model space distance between geometric entities at asserted c
onnectivities');
#624=(
GEOMETRIC_REPRESENTATION_CONTEXT(3)
GLOBAL_UNCERTAINTY_ASSIGNED_CONTEXT((#620))
GLOBAL_UNIT_ASSIGNED_CONTEXT((#628,#631,#630))
REPRESENTATION_CONTEXT('','3D')
);
#625=(
GEOMETRIC_REPRESENTATION_CONTEXT(3)
GLOBAL_UNCERTAINTY_ASSIGNED_CONTEXT((#621))
GLOBAL_UNIT_ASSIGNED_CONTEXT((#628,#631,#630))
REPRESENTATION_CONTEXT('','3D')
);
#626=(
GEOMETRIC_REPRESENTATION_CONTEXT(3)
GLOBAL_UNCERTAINTY_ASSIGNED_CONTEXT((#622))
GLOBAL_UNIT_ASSIGNED_CONTEXT((#628,#631,#630))
REPRESENTATION_CONTEXT('','3D')
);
#627=(
GEOMETRIC_REPRESENTATION_CONTEXT(3)
GLOBAL_UNCERTAINTY_ASSIGNED_CONTEXT((#623))
GLOBAL_UNIT_ASSIGNED_CONTEXT((#628,#631,#630))
REPRESENTATION_CONTEXT('','3D')
);
#628=(
LENGTH_UNIT()
NAMED_UNIT(*)
SI_UNIT(.MILLI.,.METRE.)
);
#629=(
LENGTH_UNIT()
NAMED_UNIT(*)
SI_UNIT(.CENTI.,.METRE.)
);
#630=(
NAMED_UNIT(*)
SI_UNIT($,.STERADIAN.)
SOLID_ANGLE_UNIT()
);
#631=(
NAMED_UNIT(*)
PLANE_ANGLE_UNIT()
SI_UNIT($,.RADIAN.)
);
#632=SHAPE_DEFINITION_REPRESENTATION(#635,#641);
#633=SHAPE_DEFINITION_REPRESENTATION(#636,#642);
#634=SHAPE_DEFINITION_REPRESENTATION(#637,#643);
#635=PRODUCT_DEFINITION_SHAPE('',$,#645);
#636=PRODUCT_DEFINITION_SHAPE('',$,#646);
#637=PRODUCT_DEFINITION_SHAPE('',$,#647);
#638=PRODUCT_DEFINITION_SHAPE($,$,#20);
#639=PRODUCT_DEFINITION_SHAPE($,$,#21);
#640=PRODUCT_DEFINITION_SHAPE($,$,#22);
#641=SHAPE_REPRESENTATION('',(#393,#428,#429,#430),#624);
#642=SHAPE_REPRESENTATION('',(#394),#625);
#643=SHAPE_REPRESENTATION('',(#413),#626);
#644=PRODUCT_DEFINITION_CONTEXT('part definition',#655,'design');
#645=PRODUCT_DEFINITION('WKZ-0039','E_3_01_12_19_00_WKZ-0039',#648,#644);
#646=PRODUCT_DEFINITION('WKZ-0039-01','E_3_01_12_19_00_WKZ-0039_Teil1',
#649,#644);
#647=PRODUCT_DEFINITION('WKZ-0039-02','E_3_01_12_19_00_WKZ-0039_Teil2',
#650,#644);
#648=PRODUCT_DEFINITION_FORMATION('',$,#657);
#649=PRODUCT_DEFINITION_FORMATION('',$,#658);
#650=PRODUCT_DEFINITION_FORMATION('',$,#659);
#651=PRODUCT_RELATED_PRODUCT_CATEGORY('E_3_01_12_19_00_WKZ-0039',
'E_3_01_12_19_00_WKZ-0039',(#657));
#652=PRODUCT_RELATED_PRODUCT_CATEGORY('E_3_01_12_19_00_WKZ-0039_Teil1',
'E_3_01_12_19_00_WKZ-0039_Teil1',(#658));
#653=PRODUCT_RELATED_PRODUCT_CATEGORY('E_3_01_12_19_00_WKZ-0039_Teil2',
'E_3_01_12_19_00_WKZ-0039_Teil2',(#659));
#654=APPLICATION_PROTOCOL_DEFINITION('international standard',
'automotive_design',2009,#655);
#655=APPLICATION_CONTEXT(
'Core Data for Automotive Mechanical Design Process');
#656=PRODUCT_CONTEXT('part definition',#655,'mechanical');
#657=PRODUCT('WKZ-0039','E_3_01_12_19_00_WKZ-0039',$,(#656));
#658=PRODUCT('WKZ-0039-01','E_3_01_12_19_00_WKZ-0039_Teil1',$,(#656));
#659=PRODUCT('WKZ-0039-02','E_3_01_12_19_00_WKZ-0039_Teil2',$,(#656));
ENDSEC;
END-ISO-10303-21;
