ISO-10303-21;
HEADER;
/* Generated by software containing ST-Developer
 * from STEP Tools, Inc. (www.steptools.com) 
 */

FILE_DESCRIPTION(
/* description */ (''),
/* implementation_level */ '2;1');

FILE_NAME(
/* name */ 'E_3_01_10_18_00_WKZ-0085.stp',
/* time_stamp */ '2025-11-24T11:23:07+01:00',
/* author */ ('d.fischer'),
/* organization */ (''),
/* preprocessor_version */ 'ST-DEVELOPER v20',
/* originating_system */ 'Autodesk Inventor 2025',
/* authorisation */ '');

FILE_SCHEMA (('AUTOMOTIVE_DESIGN { 1 0 10303 214 3 1 1 }'));
ENDSEC;

DATA;
#10=MECHANICAL_DESIGN_GEOMETRIC_PRESENTATION_REPRESENTATION('',(#14,#15),
#556);
#11=SHAPE_REPRESENTATION_RELATIONSHIP('SRR','None',#563,#12);
#12=ADVANCED_BREP_SHAPE_REPRESENTATION('',(#13),#555);
#13=MANIFOLD_SOLID_BREP('Volumenk\X\F6rper1',#339);
#14=STYLED_ITEM('',(#573),#326);
#15=STYLED_ITEM('',(#572),#13);
#16=FACE_OUTER_BOUND('',#33,.T.);
#17=FACE_OUTER_BOUND('',#34,.T.);
#18=FACE_OUTER_BOUND('',#35,.T.);
#19=FACE_OUTER_BOUND('',#36,.T.);
#20=FACE_OUTER_BOUND('',#37,.T.);
#21=FACE_OUTER_BOUND('',#38,.T.);
#22=FACE_OUTER_BOUND('',#39,.T.);
#23=FACE_OUTER_BOUND('',#40,.T.);
#24=FACE_OUTER_BOUND('',#41,.T.);
#25=FACE_OUTER_BOUND('',#42,.T.);
#26=FACE_OUTER_BOUND('',#43,.T.);
#27=FACE_OUTER_BOUND('',#44,.T.);
#28=FACE_OUTER_BOUND('',#45,.T.);
#29=FACE_OUTER_BOUND('',#46,.T.);
#30=FACE_OUTER_BOUND('',#47,.T.);
#31=FACE_OUTER_BOUND('',#48,.T.);
#32=FACE_OUTER_BOUND('',#49,.T.);
#33=EDGE_LOOP('',(#215,#216,#217,#218,#219,#220,#221,#222,#223,#224,#225,
#226,#227,#228,#229));
#34=EDGE_LOOP('',(#230,#231,#232,#233));
#35=EDGE_LOOP('',(#234,#235,#236,#237));
#36=EDGE_LOOP('',(#238,#239,#240,#241));
#37=EDGE_LOOP('',(#242,#243,#244,#245));
#38=EDGE_LOOP('',(#246,#247,#248,#249));
#39=EDGE_LOOP('',(#250,#251,#252,#253));
#40=EDGE_LOOP('',(#254,#255,#256,#257));
#41=EDGE_LOOP('',(#258,#259,#260,#261));
#42=EDGE_LOOP('',(#262,#263,#264,#265));
#43=EDGE_LOOP('',(#266,#267,#268,#269));
#44=EDGE_LOOP('',(#270,#271,#272,#273));
#45=EDGE_LOOP('',(#274,#275,#276,#277));
#46=EDGE_LOOP('',(#278,#279,#280,#281));
#47=EDGE_LOOP('',(#282,#283,#284,#285));
#48=EDGE_LOOP('',(#286,#287,#288,#289));
#49=EDGE_LOOP('',(#290,#291,#292,#293,#294,#295,#296,#297,#298,#299,#300,
#301,#302,#303,#304));
#50=LINE('',#464,#95);
#51=LINE('',#466,#96);
#52=LINE('',#468,#97);
#53=LINE('',#470,#98);
#54=LINE('',#472,#99);
#55=LINE('',#474,#100);
#56=LINE('',#476,#101);
#57=LINE('',#478,#102);
#58=LINE('',#480,#103);
#59=LINE('',#482,#104);
#60=LINE('',#484,#105);
#61=LINE('',#486,#106);
#62=LINE('',#488,#107);
#63=LINE('',#490,#108);
#64=LINE('',#491,#109);
#65=LINE('',#495,#110);
#66=LINE('',#496,#111);
#67=LINE('',#497,#112);
#68=LINE('',#500,#113);
#69=LINE('',#501,#114);
#70=LINE('',#504,#115);
#71=LINE('',#505,#116);
#72=LINE('',#508,#117);
#73=LINE('',#509,#118);
#74=LINE('',#512,#119);
#75=LINE('',#513,#120);
#76=LINE('',#516,#121);
#77=LINE('',#517,#122);
#78=LINE('',#520,#123);
#79=LINE('',#521,#124);
#80=LINE('',#524,#125);
#81=LINE('',#525,#126);
#82=LINE('',#528,#127);
#83=LINE('',#529,#128);
#84=LINE('',#532,#129);
#85=LINE('',#533,#130);
#86=LINE('',#536,#131);
#87=LINE('',#537,#132);
#88=LINE('',#540,#133);
#89=LINE('',#541,#134);
#90=LINE('',#544,#135);
#91=LINE('',#545,#136);
#92=LINE('',#548,#137);
#93=LINE('',#549,#138);
#94=LINE('',#551,#139);
#95=VECTOR('',#383,10.);
#96=VECTOR('',#384,10.);
#97=VECTOR('',#385,10.);
#98=VECTOR('',#386,10.);
#99=VECTOR('',#387,10.);
#100=VECTOR('',#388,10.);
#101=VECTOR('',#389,10.);
#102=VECTOR('',#390,10.);
#103=VECTOR('',#391,10.);
#104=VECTOR('',#392,10.);
#105=VECTOR('',#393,10.);
#106=VECTOR('',#394,10.);
#107=VECTOR('',#395,10.);
#108=VECTOR('',#396,10.);
#109=VECTOR('',#397,10.);
#110=VECTOR('',#400,10.);
#111=VECTOR('',#401,10.);
#112=VECTOR('',#402,10.);
#113=VECTOR('',#405,10.);
#114=VECTOR('',#406,10.);
#115=VECTOR('',#409,10.);
#116=VECTOR('',#410,10.);
#117=VECTOR('',#413,10.);
#118=VECTOR('',#414,10.);
#119=VECTOR('',#417,10.);
#120=VECTOR('',#418,10.);
#121=VECTOR('',#421,10.);
#122=VECTOR('',#422,10.);
#123=VECTOR('',#425,10.);
#124=VECTOR('',#426,10.);
#125=VECTOR('',#429,10.);
#126=VECTOR('',#430,10.);
#127=VECTOR('',#433,10.);
#128=VECTOR('',#434,10.);
#129=VECTOR('',#437,10.);
#130=VECTOR('',#438,10.);
#131=VECTOR('',#441,10.);
#132=VECTOR('',#442,10.);
#133=VECTOR('',#445,10.);
#134=VECTOR('',#446,10.);
#135=VECTOR('',#449,10.);
#136=VECTOR('',#450,10.);
#137=VECTOR('',#453,10.);
#138=VECTOR('',#454,10.);
#139=VECTOR('',#457,10.);
#140=VERTEX_POINT('',#462);
#141=VERTEX_POINT('',#463);
#142=VERTEX_POINT('',#465);
#143=VERTEX_POINT('',#467);
#144=VERTEX_POINT('',#469);
#145=VERTEX_POINT('',#471);
#146=VERTEX_POINT('',#473);
#147=VERTEX_POINT('',#475);
#148=VERTEX_POINT('',#477);
#149=VERTEX_POINT('',#479);
#150=VERTEX_POINT('',#481);
#151=VERTEX_POINT('',#483);
#152=VERTEX_POINT('',#485);
#153=VERTEX_POINT('',#487);
#154=VERTEX_POINT('',#489);
#155=VERTEX_POINT('',#493);
#156=VERTEX_POINT('',#494);
#157=VERTEX_POINT('',#499);
#158=VERTEX_POINT('',#503);
#159=VERTEX_POINT('',#507);
#160=VERTEX_POINT('',#511);
#161=VERTEX_POINT('',#515);
#162=VERTEX_POINT('',#519);
#163=VERTEX_POINT('',#523);
#164=VERTEX_POINT('',#527);
#165=VERTEX_POINT('',#531);
#166=VERTEX_POINT('',#535);
#167=VERTEX_POINT('',#539);
#168=VERTEX_POINT('',#543);
#169=VERTEX_POINT('',#547);
#170=EDGE_CURVE('',#140,#141,#50,.T.);
#171=EDGE_CURVE('',#142,#140,#51,.T.);
#172=EDGE_CURVE('',#143,#142,#52,.T.);
#173=EDGE_CURVE('',#144,#143,#53,.T.);
#174=EDGE_CURVE('',#145,#144,#54,.T.);
#175=EDGE_CURVE('',#146,#145,#55,.T.);
#176=EDGE_CURVE('',#147,#146,#56,.T.);
#177=EDGE_CURVE('',#148,#147,#57,.T.);
#178=EDGE_CURVE('',#149,#148,#58,.T.);
#179=EDGE_CURVE('',#150,#149,#59,.T.);
#180=EDGE_CURVE('',#151,#150,#60,.T.);
#181=EDGE_CURVE('',#152,#151,#61,.T.);
#182=EDGE_CURVE('',#153,#152,#62,.T.);
#183=EDGE_CURVE('',#154,#153,#63,.T.);
#184=EDGE_CURVE('',#141,#154,#64,.T.);
#185=EDGE_CURVE('',#155,#156,#65,.T.);
#186=EDGE_CURVE('',#156,#143,#66,.T.);
#187=EDGE_CURVE('',#155,#142,#67,.T.);
#188=EDGE_CURVE('',#156,#157,#68,.T.);
#189=EDGE_CURVE('',#157,#144,#69,.T.);
#190=EDGE_CURVE('',#157,#158,#70,.T.);
#191=EDGE_CURVE('',#158,#145,#71,.T.);
#192=EDGE_CURVE('',#158,#159,#72,.T.);
#193=EDGE_CURVE('',#159,#146,#73,.T.);
#194=EDGE_CURVE('',#159,#160,#74,.T.);
#195=EDGE_CURVE('',#160,#147,#75,.T.);
#196=EDGE_CURVE('',#160,#161,#76,.T.);
#197=EDGE_CURVE('',#161,#148,#77,.T.);
#198=EDGE_CURVE('',#161,#162,#78,.T.);
#199=EDGE_CURVE('',#162,#149,#79,.T.);
#200=EDGE_CURVE('',#162,#163,#80,.T.);
#201=EDGE_CURVE('',#163,#150,#81,.T.);
#202=EDGE_CURVE('',#163,#164,#82,.T.);
#203=EDGE_CURVE('',#164,#151,#83,.T.);
#204=EDGE_CURVE('',#164,#165,#84,.T.);
#205=EDGE_CURVE('',#165,#152,#85,.T.);
#206=EDGE_CURVE('',#165,#166,#86,.T.);
#207=EDGE_CURVE('',#166,#153,#87,.T.);
#208=EDGE_CURVE('',#166,#167,#88,.T.);
#209=EDGE_CURVE('',#167,#154,#89,.T.);
#210=EDGE_CURVE('',#167,#168,#90,.T.);
#211=EDGE_CURVE('',#168,#141,#91,.T.);
#212=EDGE_CURVE('',#168,#169,#92,.T.);
#213=EDGE_CURVE('',#140,#169,#93,.T.);
#214=EDGE_CURVE('',#169,#155,#94,.T.);
#215=ORIENTED_EDGE('',*,*,#170,.F.);
#216=ORIENTED_EDGE('',*,*,#171,.F.);
#217=ORIENTED_EDGE('',*,*,#172,.F.);
#218=ORIENTED_EDGE('',*,*,#173,.F.);
#219=ORIENTED_EDGE('',*,*,#174,.F.);
#220=ORIENTED_EDGE('',*,*,#175,.F.);
#221=ORIENTED_EDGE('',*,*,#176,.F.);
#222=ORIENTED_EDGE('',*,*,#177,.F.);
#223=ORIENTED_EDGE('',*,*,#178,.F.);
#224=ORIENTED_EDGE('',*,*,#179,.F.);
#225=ORIENTED_EDGE('',*,*,#180,.F.);
#226=ORIENTED_EDGE('',*,*,#181,.F.);
#227=ORIENTED_EDGE('',*,*,#182,.F.);
#228=ORIENTED_EDGE('',*,*,#183,.F.);
#229=ORIENTED_EDGE('',*,*,#184,.F.);
#230=ORIENTED_EDGE('',*,*,#185,.T.);
#231=ORIENTED_EDGE('',*,*,#186,.T.);
#232=ORIENTED_EDGE('',*,*,#172,.T.);
#233=ORIENTED_EDGE('',*,*,#187,.F.);
#234=ORIENTED_EDGE('',*,*,#188,.T.);
#235=ORIENTED_EDGE('',*,*,#189,.T.);
#236=ORIENTED_EDGE('',*,*,#173,.T.);
#237=ORIENTED_EDGE('',*,*,#186,.F.);
#238=ORIENTED_EDGE('',*,*,#190,.T.);
#239=ORIENTED_EDGE('',*,*,#191,.T.);
#240=ORIENTED_EDGE('',*,*,#174,.T.);
#241=ORIENTED_EDGE('',*,*,#189,.F.);
#242=ORIENTED_EDGE('',*,*,#192,.T.);
#243=ORIENTED_EDGE('',*,*,#193,.T.);
#244=ORIENTED_EDGE('',*,*,#175,.T.);
#245=ORIENTED_EDGE('',*,*,#191,.F.);
#246=ORIENTED_EDGE('',*,*,#194,.T.);
#247=ORIENTED_EDGE('',*,*,#195,.T.);
#248=ORIENTED_EDGE('',*,*,#176,.T.);
#249=ORIENTED_EDGE('',*,*,#193,.F.);
#250=ORIENTED_EDGE('',*,*,#196,.T.);
#251=ORIENTED_EDGE('',*,*,#197,.T.);
#252=ORIENTED_EDGE('',*,*,#177,.T.);
#253=ORIENTED_EDGE('',*,*,#195,.F.);
#254=ORIENTED_EDGE('',*,*,#198,.T.);
#255=ORIENTED_EDGE('',*,*,#199,.T.);
#256=ORIENTED_EDGE('',*,*,#178,.T.);
#257=ORIENTED_EDGE('',*,*,#197,.F.);
#258=ORIENTED_EDGE('',*,*,#200,.T.);
#259=ORIENTED_EDGE('',*,*,#201,.T.);
#260=ORIENTED_EDGE('',*,*,#179,.T.);
#261=ORIENTED_EDGE('',*,*,#199,.F.);
#262=ORIENTED_EDGE('',*,*,#202,.T.);
#263=ORIENTED_EDGE('',*,*,#203,.T.);
#264=ORIENTED_EDGE('',*,*,#180,.T.);
#265=ORIENTED_EDGE('',*,*,#201,.F.);
#266=ORIENTED_EDGE('',*,*,#204,.T.);
#267=ORIENTED_EDGE('',*,*,#205,.T.);
#268=ORIENTED_EDGE('',*,*,#181,.T.);
#269=ORIENTED_EDGE('',*,*,#203,.F.);
#270=ORIENTED_EDGE('',*,*,#206,.T.);
#271=ORIENTED_EDGE('',*,*,#207,.T.);
#272=ORIENTED_EDGE('',*,*,#182,.T.);
#273=ORIENTED_EDGE('',*,*,#205,.F.);
#274=ORIENTED_EDGE('',*,*,#208,.T.);
#275=ORIENTED_EDGE('',*,*,#209,.T.);
#276=ORIENTED_EDGE('',*,*,#183,.T.);
#277=ORIENTED_EDGE('',*,*,#207,.F.);
#278=ORIENTED_EDGE('',*,*,#210,.T.);
#279=ORIENTED_EDGE('',*,*,#211,.T.);
#280=ORIENTED_EDGE('',*,*,#184,.T.);
#281=ORIENTED_EDGE('',*,*,#209,.F.);
#282=ORIENTED_EDGE('',*,*,#212,.T.);
#283=ORIENTED_EDGE('',*,*,#213,.F.);
#284=ORIENTED_EDGE('',*,*,#170,.T.);
#285=ORIENTED_EDGE('',*,*,#211,.F.);
#286=ORIENTED_EDGE('',*,*,#214,.T.);
#287=ORIENTED_EDGE('',*,*,#187,.T.);
#288=ORIENTED_EDGE('',*,*,#171,.T.);
#289=ORIENTED_EDGE('',*,*,#213,.T.);
#290=ORIENTED_EDGE('',*,*,#185,.F.);
#291=ORIENTED_EDGE('',*,*,#214,.F.);
#292=ORIENTED_EDGE('',*,*,#212,.F.);
#293=ORIENTED_EDGE('',*,*,#210,.F.);
#294=ORIENTED_EDGE('',*,*,#208,.F.);
#295=ORIENTED_EDGE('',*,*,#206,.F.);
#296=ORIENTED_EDGE('',*,*,#204,.F.);
#297=ORIENTED_EDGE('',*,*,#202,.F.);
#298=ORIENTED_EDGE('',*,*,#200,.F.);
#299=ORIENTED_EDGE('',*,*,#198,.F.);
#300=ORIENTED_EDGE('',*,*,#196,.F.);
#301=ORIENTED_EDGE('',*,*,#194,.F.);
#302=ORIENTED_EDGE('',*,*,#192,.F.);
#303=ORIENTED_EDGE('',*,*,#190,.F.);
#304=ORIENTED_EDGE('',*,*,#188,.F.);
#305=PLANE('',#362);
#306=PLANE('',#363);
#307=PLANE('',#364);
#308=PLANE('',#365);
#309=PLANE('',#366);
#310=PLANE('',#367);
#311=PLANE('',#368);
#312=PLANE('',#369);
#313=PLANE('',#370);
#314=PLANE('',#371);
#315=PLANE('',#372);
#316=PLANE('',#373);
#317=PLANE('',#374);
#318=PLANE('',#375);
#319=PLANE('',#376);
#320=PLANE('',#377);
#321=PLANE('',#378);
#322=ADVANCED_FACE('',(#16),#305,.F.);
#323=ADVANCED_FACE('',(#17),#306,.T.);
#324=ADVANCED_FACE('',(#18),#307,.T.);
#325=ADVANCED_FACE('',(#19),#308,.T.);
#326=ADVANCED_FACE('',(#20),#309,.T.);
#327=ADVANCED_FACE('',(#21),#310,.T.);
#328=ADVANCED_FACE('',(#22),#311,.T.);
#329=ADVANCED_FACE('',(#23),#312,.T.);
#330=ADVANCED_FACE('',(#24),#313,.T.);
#331=ADVANCED_FACE('',(#25),#314,.T.);
#332=ADVANCED_FACE('',(#26),#315,.T.);
#333=ADVANCED_FACE('',(#27),#316,.T.);
#334=ADVANCED_FACE('',(#28),#317,.T.);
#335=ADVANCED_FACE('',(#29),#318,.T.);
#336=ADVANCED_FACE('',(#30),#319,.T.);
#337=ADVANCED_FACE('',(#31),#320,.T.);
#338=ADVANCED_FACE('',(#32),#321,.T.);
#339=CLOSED_SHELL('',(#322,#323,#324,#325,#326,#327,#328,#329,#330,#331,
#332,#333,#334,#335,#336,#337,#338));
#340=DERIVED_UNIT_ELEMENT(#343,1.);
#341=DERIVED_UNIT_ELEMENT(#558,-3.);
#342=DIMENSIONAL_EXPONENTS(0.,1.,0.,0.,0.,0.,0.);
#343=(
CONVERSION_BASED_UNIT('gram',#345)
MASS_UNIT()
NAMED_UNIT(#342)
);
#344=(
MASS_UNIT()
NAMED_UNIT(*)
SI_UNIT(.KILO.,.GRAM.)
);
#345=MASS_MEASURE_WITH_UNIT(MASS_MEASURE(0.001),#344);
#346=DERIVED_UNIT((#340,#341));
#347=MEASURE_REPRESENTATION_ITEM('density measure',
POSITIVE_RATIO_MEASURE(8.03),#346);
#348=PROPERTY_DEFINITION_REPRESENTATION(#353,#350);
#349=PROPERTY_DEFINITION_REPRESENTATION(#354,#351);
#350=REPRESENTATION('material name',(#352),#555);
#351=REPRESENTATION('density',(#347),#555);
#352=DESCRIPTIVE_REPRESENTATION_ITEM('1.4301','1.4301');
#353=PROPERTY_DEFINITION('material property','material name',#565);
#354=PROPERTY_DEFINITION('material property','density of part',#565);
#355=DATE_TIME_ROLE('creation_date');
#356=APPLIED_DATE_AND_TIME_ASSIGNMENT(#357,#355,(#565));
#357=DATE_AND_TIME(#358,#359);
#358=CALENDAR_DATE(2011,20,10);
#359=LOCAL_TIME(0,0,0.,#360);
#360=COORDINATED_UNIVERSAL_TIME_OFFSET(0,0,.BEHIND.);
#361=AXIS2_PLACEMENT_3D('',#460,#379,#380);
#362=AXIS2_PLACEMENT_3D('',#461,#381,#382);
#363=AXIS2_PLACEMENT_3D('',#492,#398,#399);
#364=AXIS2_PLACEMENT_3D('',#498,#403,#404);
#365=AXIS2_PLACEMENT_3D('',#502,#407,#408);
#366=AXIS2_PLACEMENT_3D('',#506,#411,#412);
#367=AXIS2_PLACEMENT_3D('',#510,#415,#416);
#368=AXIS2_PLACEMENT_3D('',#514,#419,#420);
#369=AXIS2_PLACEMENT_3D('',#518,#423,#424);
#370=AXIS2_PLACEMENT_3D('',#522,#427,#428);
#371=AXIS2_PLACEMENT_3D('',#526,#431,#432);
#372=AXIS2_PLACEMENT_3D('',#530,#435,#436);
#373=AXIS2_PLACEMENT_3D('',#534,#439,#440);
#374=AXIS2_PLACEMENT_3D('',#538,#443,#444);
#375=AXIS2_PLACEMENT_3D('',#542,#447,#448);
#376=AXIS2_PLACEMENT_3D('',#546,#451,#452);
#377=AXIS2_PLACEMENT_3D('',#550,#455,#456);
#378=AXIS2_PLACEMENT_3D('',#552,#458,#459);
#379=DIRECTION('axis',(0.,0.,1.));
#380=DIRECTION('refdir',(1.,0.,0.));
#381=DIRECTION('center_axis',(0.,0.,1.));
#382=DIRECTION('ref_axis',(1.,0.,0.));
#383=DIRECTION('',(0.,1.,0.));
#384=DIRECTION('',(1.,0.,0.));
#385=DIRECTION('',(0.,-1.,0.));
#386=DIRECTION('',(1.,0.,0.));
#387=DIRECTION('',(0.,1.,0.));
#388=DIRECTION('',(1.,0.,0.));
#389=DIRECTION('',(0.,-1.,0.));
#390=DIRECTION('',(1.,0.,0.));
#391=DIRECTION('',(0.,1.,0.));
#392=DIRECTION('',(1.,0.,0.));
#393=DIRECTION('',(0.,-1.,0.));
#394=DIRECTION('',(-1.,-6.53072367426563E-16,0.));
#395=DIRECTION('',(-0.707106781186548,0.707106781186547,0.));
#396=DIRECTION('',(-0.707106781186548,-0.707106781186547,0.));
#397=DIRECTION('',(-1.,6.53072367426563E-16,0.));
#398=DIRECTION('center_axis',(-1.,0.,0.));
#399=DIRECTION('ref_axis',(0.,0.,1.));
#400=DIRECTION('',(0.,1.,0.));
#401=DIRECTION('',(0.,0.,-1.));
#402=DIRECTION('',(0.,0.,-1.));
#403=DIRECTION('center_axis',(0.,-1.,0.));
#404=DIRECTION('ref_axis',(0.,0.,-1.));
#405=DIRECTION('',(-1.,0.,0.));
#406=DIRECTION('',(0.,0.,-1.));
#407=DIRECTION('center_axis',(1.,0.,0.));
#408=DIRECTION('ref_axis',(0.,0.,-1.));
#409=DIRECTION('',(0.,-1.,0.));
#410=DIRECTION('',(0.,0.,-1.));
#411=DIRECTION('center_axis',(0.,-1.,0.));
#412=DIRECTION('ref_axis',(0.,0.,-1.));
#413=DIRECTION('',(-1.,0.,0.));
#414=DIRECTION('',(0.,0.,-1.));
#415=DIRECTION('center_axis',(-1.,0.,0.));
#416=DIRECTION('ref_axis',(0.,0.,1.));
#417=DIRECTION('',(0.,1.,0.));
#418=DIRECTION('',(0.,0.,-1.));
#419=DIRECTION('center_axis',(0.,-1.,0.));
#420=DIRECTION('ref_axis',(0.,0.,-1.));
#421=DIRECTION('',(-1.,0.,0.));
#422=DIRECTION('',(0.,0.,-1.));
#423=DIRECTION('center_axis',(1.,0.,0.));
#424=DIRECTION('ref_axis',(0.,0.,-1.));
#425=DIRECTION('',(0.,-1.,0.));
#426=DIRECTION('',(0.,0.,-1.));
#427=DIRECTION('center_axis',(0.,-1.,0.));
#428=DIRECTION('ref_axis',(0.,0.,-1.));
#429=DIRECTION('',(-1.,0.,0.));
#430=DIRECTION('',(0.,0.,-1.));
#431=DIRECTION('center_axis',(-1.,0.,0.));
#432=DIRECTION('ref_axis',(0.,0.,1.));
#433=DIRECTION('',(0.,1.,0.));
#434=DIRECTION('',(0.,0.,-1.));
#435=DIRECTION('center_axis',(-6.53072367426563E-16,1.,0.));
#436=DIRECTION('ref_axis',(0.,0.,1.));
#437=DIRECTION('',(1.,6.53072367426563E-16,0.));
#438=DIRECTION('',(0.,0.,-1.));
#439=DIRECTION('center_axis',(0.707106781186547,0.707106781186548,0.));
#440=DIRECTION('ref_axis',(0.,0.,-1.));
#441=DIRECTION('',(0.707106781186548,-0.707106781186547,0.));
#442=DIRECTION('',(0.,0.,-1.));
#443=DIRECTION('center_axis',(-0.707106781186547,0.707106781186548,0.));
#444=DIRECTION('ref_axis',(0.,0.,1.));
#445=DIRECTION('',(0.707106781186548,0.707106781186547,0.));
#446=DIRECTION('',(0.,0.,-1.));
#447=DIRECTION('center_axis',(6.53072367426563E-16,1.,0.));
#448=DIRECTION('ref_axis',(0.,0.,1.));
#449=DIRECTION('',(1.,-6.53072367426563E-16,0.));
#450=DIRECTION('',(0.,0.,-1.));
#451=DIRECTION('center_axis',(1.,0.,0.));
#452=DIRECTION('ref_axis',(0.,0.,-1.));
#453=DIRECTION('',(0.,-1.,0.));
#454=DIRECTION('',(0.,0.,1.));
#455=DIRECTION('center_axis',(0.,-1.,0.));
#456=DIRECTION('ref_axis',(0.,0.,-1.));
#457=DIRECTION('',(-1.,0.,0.));
#458=DIRECTION('center_axis',(0.,0.,1.));
#459=DIRECTION('ref_axis',(1.,0.,0.));
#460=CARTESIAN_POINT('',(0.,0.,0.));
#461=CARTESIAN_POINT('Origin',(-5.55111512312578E-16,7.10504788338953,-8.));
#462=CARTESIAN_POINT('',(10.,0.,-8.));
#463=CARTESIAN_POINT('',(10.,15.,-8.));
#464=CARTESIAN_POINT('',(10.,15.,-8.));
#465=CARTESIAN_POINT('',(8.,0.,-8.));
#466=CARTESIAN_POINT('',(10.,0.,-8.));
#467=CARTESIAN_POINT('',(8.,0.5,-8.));
#468=CARTESIAN_POINT('',(8.,0.,-8.));
#469=CARTESIAN_POINT('',(3.5,0.5,-8.));
#470=CARTESIAN_POINT('',(8.,0.5,-8.));
#471=CARTESIAN_POINT('',(3.5,0.,-8.));
#472=CARTESIAN_POINT('',(3.5,0.5,-8.));
#473=CARTESIAN_POINT('',(-3.5,0.,-8.));
#474=CARTESIAN_POINT('',(3.5,0.,-8.));
#475=CARTESIAN_POINT('',(-3.5,0.5,-8.));
#476=CARTESIAN_POINT('',(-3.5,0.,-8.));
#477=CARTESIAN_POINT('',(-8.,0.5,-8.));
#478=CARTESIAN_POINT('',(-3.5,0.5,-8.));
#479=CARTESIAN_POINT('',(-8.,0.,-8.));
#480=CARTESIAN_POINT('',(-8.,0.5,-8.));
#481=CARTESIAN_POINT('',(-10.,0.,-8.));
#482=CARTESIAN_POINT('',(-8.,0.,-8.));
#483=CARTESIAN_POINT('',(-10.,15.,-8.));
#484=CARTESIAN_POINT('',(-10.,0.,-8.));
#485=CARTESIAN_POINT('',(-6.6,15.,-8.));
#486=CARTESIAN_POINT('',(-10.,15.,-8.));
#487=CARTESIAN_POINT('',(3.38976720687226E-16,8.40000000000001,-8.));
#488=CARTESIAN_POINT('',(-6.6,15.,-8.));
#489=CARTESIAN_POINT('',(6.6,15.,-8.));
#490=CARTESIAN_POINT('',(3.38976720687226E-16,8.40000000000001,-8.));
#491=CARTESIAN_POINT('',(6.6,15.,-8.));
#492=CARTESIAN_POINT('Origin',(8.,0.,0.));
#493=CARTESIAN_POINT('',(8.,0.,8.));
#494=CARTESIAN_POINT('',(8.,0.5,8.));
#495=CARTESIAN_POINT('',(8.,0.,8.));
#496=CARTESIAN_POINT('',(8.,0.5,0.));
#497=CARTESIAN_POINT('',(8.,0.,0.));
#498=CARTESIAN_POINT('Origin',(8.,0.5,0.));
#499=CARTESIAN_POINT('',(3.5,0.5,8.));
#500=CARTESIAN_POINT('',(8.,0.5,8.));
#501=CARTESIAN_POINT('',(3.5,0.5,0.));
#502=CARTESIAN_POINT('Origin',(3.5,0.5,0.));
#503=CARTESIAN_POINT('',(3.5,0.,8.));
#504=CARTESIAN_POINT('',(3.5,0.5,8.));
#505=CARTESIAN_POINT('',(3.5,0.,0.));
#506=CARTESIAN_POINT('Origin',(3.5,0.,0.));
#507=CARTESIAN_POINT('',(-3.5,0.,8.));
#508=CARTESIAN_POINT('',(3.5,0.,8.));
#509=CARTESIAN_POINT('',(-3.5,0.,0.));
#510=CARTESIAN_POINT('Origin',(-3.5,0.,0.));
#511=CARTESIAN_POINT('',(-3.5,0.5,8.));
#512=CARTESIAN_POINT('',(-3.5,0.,8.));
#513=CARTESIAN_POINT('',(-3.5,0.5,0.));
#514=CARTESIAN_POINT('Origin',(-3.5,0.5,0.));
#515=CARTESIAN_POINT('',(-8.,0.5,8.));
#516=CARTESIAN_POINT('',(-3.5,0.5,8.));
#517=CARTESIAN_POINT('',(-8.,0.5,0.));
#518=CARTESIAN_POINT('Origin',(-8.,0.5,0.));
#519=CARTESIAN_POINT('',(-8.,0.,8.));
#520=CARTESIAN_POINT('',(-8.,0.5,8.));
#521=CARTESIAN_POINT('',(-8.,0.,0.));
#522=CARTESIAN_POINT('Origin',(-8.,0.,0.));
#523=CARTESIAN_POINT('',(-10.,0.,8.));
#524=CARTESIAN_POINT('',(-8.,0.,8.));
#525=CARTESIAN_POINT('',(-10.,0.,0.));
#526=CARTESIAN_POINT('Origin',(-10.,0.,0.));
#527=CARTESIAN_POINT('',(-10.,15.,8.));
#528=CARTESIAN_POINT('',(-10.,0.,8.));
#529=CARTESIAN_POINT('',(-10.,15.,0.));
#530=CARTESIAN_POINT('Origin',(-10.,15.,0.));
#531=CARTESIAN_POINT('',(-6.6,15.,8.));
#532=CARTESIAN_POINT('',(-10.,15.,8.));
#533=CARTESIAN_POINT('',(-6.6,15.,0.));
#534=CARTESIAN_POINT('Origin',(-6.6,15.,0.));
#535=CARTESIAN_POINT('',(3.38976720687226E-16,8.40000000000001,8.));
#536=CARTESIAN_POINT('',(-6.6,15.,8.));
#537=CARTESIAN_POINT('',(3.38976720687226E-16,8.40000000000001,0.));
#538=CARTESIAN_POINT('Origin',(3.38976720687226E-16,8.40000000000001,0.));
#539=CARTESIAN_POINT('',(6.6,15.,8.));
#540=CARTESIAN_POINT('',(3.38976720687226E-16,8.40000000000001,8.));
#541=CARTESIAN_POINT('',(6.6,15.,0.));
#542=CARTESIAN_POINT('Origin',(6.6,15.,0.));
#543=CARTESIAN_POINT('',(10.,15.,8.));
#544=CARTESIAN_POINT('',(6.6,15.,8.));
#545=CARTESIAN_POINT('',(10.,15.,0.));
#546=CARTESIAN_POINT('Origin',(10.,15.,0.));
#547=CARTESIAN_POINT('',(10.,0.,8.));
#548=CARTESIAN_POINT('',(10.,15.,8.));
#549=CARTESIAN_POINT('',(10.,0.,0.));
#550=CARTESIAN_POINT('Origin',(10.,0.,0.));
#551=CARTESIAN_POINT('',(10.,0.,8.));
#552=CARTESIAN_POINT('Origin',(-2.94902990916057E-16,7.10504788338953,8.));
#553=UNCERTAINTY_MEASURE_WITH_UNIT(LENGTH_MEASURE(0.01),#557,
'DISTANCE_ACCURACY_VALUE',
'Maximum model space distance between geometric entities at asserted c
onnectivities');
#554=UNCERTAINTY_MEASURE_WITH_UNIT(LENGTH_MEASURE(0.01),#557,
'DISTANCE_ACCURACY_VALUE',
'Maximum model space distance between geometric entities at asserted c
onnectivities');
#555=(
GEOMETRIC_REPRESENTATION_CONTEXT(3)
GLOBAL_UNCERTAINTY_ASSIGNED_CONTEXT((#553))
GLOBAL_UNIT_ASSIGNED_CONTEXT((#557,#559,#560))
REPRESENTATION_CONTEXT('','3D')
);
#556=(
GEOMETRIC_REPRESENTATION_CONTEXT(3)
GLOBAL_UNCERTAINTY_ASSIGNED_CONTEXT((#554))
GLOBAL_UNIT_ASSIGNED_CONTEXT((#557,#559,#560))
REPRESENTATION_CONTEXT('','3D')
);
#557=(
LENGTH_UNIT()
NAMED_UNIT(*)
SI_UNIT(.MILLI.,.METRE.)
);
#558=(
LENGTH_UNIT()
NAMED_UNIT(*)
SI_UNIT(.CENTI.,.METRE.)
);
#559=(
NAMED_UNIT(*)
PLANE_ANGLE_UNIT()
SI_UNIT($,.RADIAN.)
);
#560=(
NAMED_UNIT(*)
SI_UNIT($,.STERADIAN.)
SOLID_ANGLE_UNIT()
);
#561=SHAPE_DEFINITION_REPRESENTATION(#562,#563);
#562=PRODUCT_DEFINITION_SHAPE('',$,#565);
#563=SHAPE_REPRESENTATION('',(#361),#555);
#564=PRODUCT_DEFINITION_CONTEXT('part definition',#569,'design');
#565=PRODUCT_DEFINITION('WKZ-0085','E_3_01_10_18_00_WKZ-0085',#566,#564);
#566=PRODUCT_DEFINITION_FORMATION('',$,#571);
#567=PRODUCT_RELATED_PRODUCT_CATEGORY('E_3_01_10_18_00_WKZ-0085',
'E_3_01_10_18_00_WKZ-0085',(#571));
#568=APPLICATION_PROTOCOL_DEFINITION('international standard',
'automotive_design',2009,#569);
#569=APPLICATION_CONTEXT(
'Core Data for Automotive Mechanical Design Process');
#570=PRODUCT_CONTEXT('part definition',#569,'mechanical');
#571=PRODUCT('WKZ-0085','E_3_01_10_18_00_WKZ-0085',$,(#570));
#572=PRESENTATION_STYLE_ASSIGNMENT((#574));
#573=PRESENTATION_STYLE_ASSIGNMENT((#575));
#574=SURFACE_STYLE_USAGE(.BOTH.,#578);
#575=SURFACE_STYLE_USAGE(.BOTH.,#579);
#576=SURFACE_STYLE_RENDERING_WITH_PROPERTIES($,#586,(#577));
#577=SURFACE_STYLE_TRANSPARENT(0.);
#578=SURFACE_SIDE_STYLE('',(#580,#576));
#579=SURFACE_SIDE_STYLE('',(#581));
#580=SURFACE_STYLE_FILL_AREA(#582);
#581=SURFACE_STYLE_FILL_AREA(#583);
#582=FILL_AREA_STYLE('',(#584));
#583=FILL_AREA_STYLE('',(#585));
#584=FILL_AREA_STYLE_COLOUR('',#586);
#585=FILL_AREA_STYLE_COLOUR('',#587);
#586=COLOUR_RGB('',0.92156862745098,0.92156862745098,0.92156862745098);
#587=COLOUR_RGB('',0.16078431372549,0.16078431372549,0.16078431372549);
ENDSEC;
END-ISO-10303-21;
