ISO-10303-21;
HEADER;
/* Generated by software containing ST-Developer
 * from STEP Tools, Inc. (www.steptools.com) 
 */

FILE_DESCRIPTION(
/* description */ (''),
/* implementation_level */ '2;1');

FILE_NAME(
/* name */ 'E_3_01_10_18_00_WKZ-0070.stp',
/* time_stamp */ '2025-11-24T11:12:19+01:00',
/* author */ ('d.fischer'),
/* organization */ (''),
/* preprocessor_version */ 'ST-DEVELOPER v20',
/* originating_system */ 'Autodesk Inventor 2025',
/* authorisation */ '');

FILE_SCHEMA (('AUTOMOTIVE_DESIGN { 1 0 10303 214 3 1 1 }'));
ENDSEC;

DATA;
#10=MECHANICAL_DESIGN_GEOMETRIC_PRESENTATION_REPRESENTATION('',(#14,#15),
#490);
#11=SHAPE_REPRESENTATION_RELATIONSHIP('SRR','None',#497,#12);
#12=ADVANCED_BREP_SHAPE_REPRESENTATION('',(#13),#489);
#13=MANIFOLD_SOLID_BREP('Volumenk\X\F6rper1',#297);
#14=STYLED_ITEM('',(#507),#286);
#15=STYLED_ITEM('',(#506),#13);
#16=FACE_OUTER_BOUND('',#31,.T.);
#17=FACE_OUTER_BOUND('',#32,.T.);
#18=FACE_OUTER_BOUND('',#33,.T.);
#19=FACE_OUTER_BOUND('',#34,.T.);
#20=FACE_OUTER_BOUND('',#35,.T.);
#21=FACE_OUTER_BOUND('',#36,.T.);
#22=FACE_OUTER_BOUND('',#37,.T.);
#23=FACE_OUTER_BOUND('',#38,.T.);
#24=FACE_OUTER_BOUND('',#39,.T.);
#25=FACE_OUTER_BOUND('',#40,.T.);
#26=FACE_OUTER_BOUND('',#41,.T.);
#27=FACE_OUTER_BOUND('',#42,.T.);
#28=FACE_OUTER_BOUND('',#43,.T.);
#29=FACE_OUTER_BOUND('',#44,.T.);
#30=FACE_OUTER_BOUND('',#45,.T.);
#31=EDGE_LOOP('',(#189,#190,#191,#192,#193,#194,#195,#196,#197,#198,#199,
#200,#201));
#32=EDGE_LOOP('',(#202,#203,#204,#205));
#33=EDGE_LOOP('',(#206,#207,#208,#209));
#34=EDGE_LOOP('',(#210,#211,#212,#213));
#35=EDGE_LOOP('',(#214,#215,#216,#217));
#36=EDGE_LOOP('',(#218,#219,#220,#221));
#37=EDGE_LOOP('',(#222,#223,#224,#225));
#38=EDGE_LOOP('',(#226,#227,#228,#229));
#39=EDGE_LOOP('',(#230,#231,#232,#233));
#40=EDGE_LOOP('',(#234,#235,#236,#237));
#41=EDGE_LOOP('',(#238,#239,#240,#241));
#42=EDGE_LOOP('',(#242,#243,#244,#245));
#43=EDGE_LOOP('',(#246,#247,#248,#249));
#44=EDGE_LOOP('',(#250,#251,#252,#253));
#45=EDGE_LOOP('',(#254,#255,#256,#257,#258,#259,#260,#261,#262,#263,#264,
#265,#266));
#46=LINE('',#410,#85);
#47=LINE('',#412,#86);
#48=LINE('',#414,#87);
#49=LINE('',#416,#88);
#50=LINE('',#418,#89);
#51=LINE('',#420,#90);
#52=LINE('',#422,#91);
#53=LINE('',#424,#92);
#54=LINE('',#426,#93);
#55=LINE('',#428,#94);
#56=LINE('',#430,#95);
#57=LINE('',#432,#96);
#58=LINE('',#433,#97);
#59=LINE('',#437,#98);
#60=LINE('',#438,#99);
#61=LINE('',#439,#100);
#62=LINE('',#442,#101);
#63=LINE('',#443,#102);
#64=LINE('',#446,#103);
#65=LINE('',#447,#104);
#66=LINE('',#450,#105);
#67=LINE('',#451,#106);
#68=LINE('',#454,#107);
#69=LINE('',#455,#108);
#70=LINE('',#458,#109);
#71=LINE('',#459,#110);
#72=LINE('',#462,#111);
#73=LINE('',#463,#112);
#74=LINE('',#466,#113);
#75=LINE('',#467,#114);
#76=LINE('',#470,#115);
#77=LINE('',#471,#116);
#78=LINE('',#474,#117);
#79=LINE('',#475,#118);
#80=LINE('',#478,#119);
#81=LINE('',#479,#120);
#82=LINE('',#482,#121);
#83=LINE('',#483,#122);
#84=LINE('',#485,#123);
#85=VECTOR('',#339,10.);
#86=VECTOR('',#340,10.);
#87=VECTOR('',#341,10.);
#88=VECTOR('',#342,10.);
#89=VECTOR('',#343,10.);
#90=VECTOR('',#344,10.);
#91=VECTOR('',#345,10.);
#92=VECTOR('',#346,10.);
#93=VECTOR('',#347,10.);
#94=VECTOR('',#348,10.);
#95=VECTOR('',#349,10.);
#96=VECTOR('',#350,10.);
#97=VECTOR('',#351,10.);
#98=VECTOR('',#354,10.);
#99=VECTOR('',#355,10.);
#100=VECTOR('',#356,10.);
#101=VECTOR('',#359,10.);
#102=VECTOR('',#360,10.);
#103=VECTOR('',#363,10.);
#104=VECTOR('',#364,10.);
#105=VECTOR('',#367,10.);
#106=VECTOR('',#368,10.);
#107=VECTOR('',#371,10.);
#108=VECTOR('',#372,10.);
#109=VECTOR('',#375,10.);
#110=VECTOR('',#376,10.);
#111=VECTOR('',#379,10.);
#112=VECTOR('',#380,10.);
#113=VECTOR('',#383,10.);
#114=VECTOR('',#384,10.);
#115=VECTOR('',#387,10.);
#116=VECTOR('',#388,10.);
#117=VECTOR('',#391,10.);
#118=VECTOR('',#392,10.);
#119=VECTOR('',#395,10.);
#120=VECTOR('',#396,10.);
#121=VECTOR('',#399,10.);
#122=VECTOR('',#400,10.);
#123=VECTOR('',#403,10.);
#124=VERTEX_POINT('',#408);
#125=VERTEX_POINT('',#409);
#126=VERTEX_POINT('',#411);
#127=VERTEX_POINT('',#413);
#128=VERTEX_POINT('',#415);
#129=VERTEX_POINT('',#417);
#130=VERTEX_POINT('',#419);
#131=VERTEX_POINT('',#421);
#132=VERTEX_POINT('',#423);
#133=VERTEX_POINT('',#425);
#134=VERTEX_POINT('',#427);
#135=VERTEX_POINT('',#429);
#136=VERTEX_POINT('',#431);
#137=VERTEX_POINT('',#435);
#138=VERTEX_POINT('',#436);
#139=VERTEX_POINT('',#441);
#140=VERTEX_POINT('',#445);
#141=VERTEX_POINT('',#449);
#142=VERTEX_POINT('',#453);
#143=VERTEX_POINT('',#457);
#144=VERTEX_POINT('',#461);
#145=VERTEX_POINT('',#465);
#146=VERTEX_POINT('',#469);
#147=VERTEX_POINT('',#473);
#148=VERTEX_POINT('',#477);
#149=VERTEX_POINT('',#481);
#150=EDGE_CURVE('',#124,#125,#46,.T.);
#151=EDGE_CURVE('',#126,#124,#47,.T.);
#152=EDGE_CURVE('',#127,#126,#48,.T.);
#153=EDGE_CURVE('',#128,#127,#49,.T.);
#154=EDGE_CURVE('',#129,#128,#50,.T.);
#155=EDGE_CURVE('',#130,#129,#51,.T.);
#156=EDGE_CURVE('',#131,#130,#52,.T.);
#157=EDGE_CURVE('',#132,#131,#53,.T.);
#158=EDGE_CURVE('',#133,#132,#54,.T.);
#159=EDGE_CURVE('',#134,#133,#55,.T.);
#160=EDGE_CURVE('',#135,#134,#56,.T.);
#161=EDGE_CURVE('',#136,#135,#57,.T.);
#162=EDGE_CURVE('',#125,#136,#58,.T.);
#163=EDGE_CURVE('',#137,#138,#59,.T.);
#164=EDGE_CURVE('',#138,#127,#60,.T.);
#165=EDGE_CURVE('',#137,#126,#61,.T.);
#166=EDGE_CURVE('',#138,#139,#62,.T.);
#167=EDGE_CURVE('',#139,#128,#63,.T.);
#168=EDGE_CURVE('',#139,#140,#64,.T.);
#169=EDGE_CURVE('',#140,#129,#65,.T.);
#170=EDGE_CURVE('',#140,#141,#66,.T.);
#171=EDGE_CURVE('',#141,#130,#67,.T.);
#172=EDGE_CURVE('',#141,#142,#68,.T.);
#173=EDGE_CURVE('',#142,#131,#69,.T.);
#174=EDGE_CURVE('',#142,#143,#70,.T.);
#175=EDGE_CURVE('',#143,#132,#71,.T.);
#176=EDGE_CURVE('',#143,#144,#72,.T.);
#177=EDGE_CURVE('',#144,#133,#73,.T.);
#178=EDGE_CURVE('',#144,#145,#74,.T.);
#179=EDGE_CURVE('',#145,#134,#75,.T.);
#180=EDGE_CURVE('',#145,#146,#76,.T.);
#181=EDGE_CURVE('',#146,#135,#77,.T.);
#182=EDGE_CURVE('',#146,#147,#78,.T.);
#183=EDGE_CURVE('',#147,#136,#79,.T.);
#184=EDGE_CURVE('',#147,#148,#80,.T.);
#185=EDGE_CURVE('',#148,#125,#81,.T.);
#186=EDGE_CURVE('',#148,#149,#82,.T.);
#187=EDGE_CURVE('',#124,#149,#83,.T.);
#188=EDGE_CURVE('',#149,#137,#84,.T.);
#189=ORIENTED_EDGE('',*,*,#150,.F.);
#190=ORIENTED_EDGE('',*,*,#151,.F.);
#191=ORIENTED_EDGE('',*,*,#152,.F.);
#192=ORIENTED_EDGE('',*,*,#153,.F.);
#193=ORIENTED_EDGE('',*,*,#154,.F.);
#194=ORIENTED_EDGE('',*,*,#155,.F.);
#195=ORIENTED_EDGE('',*,*,#156,.F.);
#196=ORIENTED_EDGE('',*,*,#157,.F.);
#197=ORIENTED_EDGE('',*,*,#158,.F.);
#198=ORIENTED_EDGE('',*,*,#159,.F.);
#199=ORIENTED_EDGE('',*,*,#160,.F.);
#200=ORIENTED_EDGE('',*,*,#161,.F.);
#201=ORIENTED_EDGE('',*,*,#162,.F.);
#202=ORIENTED_EDGE('',*,*,#163,.T.);
#203=ORIENTED_EDGE('',*,*,#164,.T.);
#204=ORIENTED_EDGE('',*,*,#152,.T.);
#205=ORIENTED_EDGE('',*,*,#165,.F.);
#206=ORIENTED_EDGE('',*,*,#166,.T.);
#207=ORIENTED_EDGE('',*,*,#167,.T.);
#208=ORIENTED_EDGE('',*,*,#153,.T.);
#209=ORIENTED_EDGE('',*,*,#164,.F.);
#210=ORIENTED_EDGE('',*,*,#168,.T.);
#211=ORIENTED_EDGE('',*,*,#169,.T.);
#212=ORIENTED_EDGE('',*,*,#154,.T.);
#213=ORIENTED_EDGE('',*,*,#167,.F.);
#214=ORIENTED_EDGE('',*,*,#170,.T.);
#215=ORIENTED_EDGE('',*,*,#171,.T.);
#216=ORIENTED_EDGE('',*,*,#155,.T.);
#217=ORIENTED_EDGE('',*,*,#169,.F.);
#218=ORIENTED_EDGE('',*,*,#172,.T.);
#219=ORIENTED_EDGE('',*,*,#173,.T.);
#220=ORIENTED_EDGE('',*,*,#156,.T.);
#221=ORIENTED_EDGE('',*,*,#171,.F.);
#222=ORIENTED_EDGE('',*,*,#174,.T.);
#223=ORIENTED_EDGE('',*,*,#175,.T.);
#224=ORIENTED_EDGE('',*,*,#157,.T.);
#225=ORIENTED_EDGE('',*,*,#173,.F.);
#226=ORIENTED_EDGE('',*,*,#176,.T.);
#227=ORIENTED_EDGE('',*,*,#177,.T.);
#228=ORIENTED_EDGE('',*,*,#158,.T.);
#229=ORIENTED_EDGE('',*,*,#175,.F.);
#230=ORIENTED_EDGE('',*,*,#178,.T.);
#231=ORIENTED_EDGE('',*,*,#179,.T.);
#232=ORIENTED_EDGE('',*,*,#159,.T.);
#233=ORIENTED_EDGE('',*,*,#177,.F.);
#234=ORIENTED_EDGE('',*,*,#180,.T.);
#235=ORIENTED_EDGE('',*,*,#181,.T.);
#236=ORIENTED_EDGE('',*,*,#160,.T.);
#237=ORIENTED_EDGE('',*,*,#179,.F.);
#238=ORIENTED_EDGE('',*,*,#182,.T.);
#239=ORIENTED_EDGE('',*,*,#183,.T.);
#240=ORIENTED_EDGE('',*,*,#161,.T.);
#241=ORIENTED_EDGE('',*,*,#181,.F.);
#242=ORIENTED_EDGE('',*,*,#184,.T.);
#243=ORIENTED_EDGE('',*,*,#185,.T.);
#244=ORIENTED_EDGE('',*,*,#162,.T.);
#245=ORIENTED_EDGE('',*,*,#183,.F.);
#246=ORIENTED_EDGE('',*,*,#186,.T.);
#247=ORIENTED_EDGE('',*,*,#187,.F.);
#248=ORIENTED_EDGE('',*,*,#150,.T.);
#249=ORIENTED_EDGE('',*,*,#185,.F.);
#250=ORIENTED_EDGE('',*,*,#188,.T.);
#251=ORIENTED_EDGE('',*,*,#165,.T.);
#252=ORIENTED_EDGE('',*,*,#151,.T.);
#253=ORIENTED_EDGE('',*,*,#187,.T.);
#254=ORIENTED_EDGE('',*,*,#163,.F.);
#255=ORIENTED_EDGE('',*,*,#188,.F.);
#256=ORIENTED_EDGE('',*,*,#186,.F.);
#257=ORIENTED_EDGE('',*,*,#184,.F.);
#258=ORIENTED_EDGE('',*,*,#182,.F.);
#259=ORIENTED_EDGE('',*,*,#180,.F.);
#260=ORIENTED_EDGE('',*,*,#178,.F.);
#261=ORIENTED_EDGE('',*,*,#176,.F.);
#262=ORIENTED_EDGE('',*,*,#174,.F.);
#263=ORIENTED_EDGE('',*,*,#172,.F.);
#264=ORIENTED_EDGE('',*,*,#170,.F.);
#265=ORIENTED_EDGE('',*,*,#168,.F.);
#266=ORIENTED_EDGE('',*,*,#166,.F.);
#267=PLANE('',#320);
#268=PLANE('',#321);
#269=PLANE('',#322);
#270=PLANE('',#323);
#271=PLANE('',#324);
#272=PLANE('',#325);
#273=PLANE('',#326);
#274=PLANE('',#327);
#275=PLANE('',#328);
#276=PLANE('',#329);
#277=PLANE('',#330);
#278=PLANE('',#331);
#279=PLANE('',#332);
#280=PLANE('',#333);
#281=PLANE('',#334);
#282=ADVANCED_FACE('',(#16),#267,.F.);
#283=ADVANCED_FACE('',(#17),#268,.T.);
#284=ADVANCED_FACE('',(#18),#269,.T.);
#285=ADVANCED_FACE('',(#19),#270,.T.);
#286=ADVANCED_FACE('',(#20),#271,.T.);
#287=ADVANCED_FACE('',(#21),#272,.T.);
#288=ADVANCED_FACE('',(#22),#273,.T.);
#289=ADVANCED_FACE('',(#23),#274,.T.);
#290=ADVANCED_FACE('',(#24),#275,.T.);
#291=ADVANCED_FACE('',(#25),#276,.T.);
#292=ADVANCED_FACE('',(#26),#277,.T.);
#293=ADVANCED_FACE('',(#27),#278,.T.);
#294=ADVANCED_FACE('',(#28),#279,.T.);
#295=ADVANCED_FACE('',(#29),#280,.T.);
#296=ADVANCED_FACE('',(#30),#281,.T.);
#297=CLOSED_SHELL('',(#282,#283,#284,#285,#286,#287,#288,#289,#290,#291,
#292,#293,#294,#295,#296));
#298=DERIVED_UNIT_ELEMENT(#301,1.);
#299=DERIVED_UNIT_ELEMENT(#492,-3.);
#300=DIMENSIONAL_EXPONENTS(0.,1.,0.,0.,0.,0.,0.);
#301=(
CONVERSION_BASED_UNIT('gram',#303)
MASS_UNIT()
NAMED_UNIT(#300)
);
#302=(
MASS_UNIT()
NAMED_UNIT(*)
SI_UNIT(.KILO.,.GRAM.)
);
#303=MASS_MEASURE_WITH_UNIT(MASS_MEASURE(0.001),#302);
#304=DERIVED_UNIT((#298,#299));
#305=MEASURE_REPRESENTATION_ITEM('density measure',
POSITIVE_RATIO_MEASURE(8.03),#304);
#306=PROPERTY_DEFINITION_REPRESENTATION(#311,#308);
#307=PROPERTY_DEFINITION_REPRESENTATION(#312,#309);
#308=REPRESENTATION('material name',(#310),#489);
#309=REPRESENTATION('density',(#305),#489);
#310=DESCRIPTIVE_REPRESENTATION_ITEM('1.4301','1.4301');
#311=PROPERTY_DEFINITION('material property','material name',#499);
#312=PROPERTY_DEFINITION('material property','density of part',#499);
#313=DATE_TIME_ROLE('creation_date');
#314=APPLIED_DATE_AND_TIME_ASSIGNMENT(#315,#313,(#499));
#315=DATE_AND_TIME(#316,#317);
#316=CALENDAR_DATE(2011,20,10);
#317=LOCAL_TIME(0,0,0.,#318);
#318=COORDINATED_UNIVERSAL_TIME_OFFSET(0,0,.BEHIND.);
#319=AXIS2_PLACEMENT_3D('',#406,#335,#336);
#320=AXIS2_PLACEMENT_3D('',#407,#337,#338);
#321=AXIS2_PLACEMENT_3D('',#434,#352,#353);
#322=AXIS2_PLACEMENT_3D('',#440,#357,#358);
#323=AXIS2_PLACEMENT_3D('',#444,#361,#362);
#324=AXIS2_PLACEMENT_3D('',#448,#365,#366);
#325=AXIS2_PLACEMENT_3D('',#452,#369,#370);
#326=AXIS2_PLACEMENT_3D('',#456,#373,#374);
#327=AXIS2_PLACEMENT_3D('',#460,#377,#378);
#328=AXIS2_PLACEMENT_3D('',#464,#381,#382);
#329=AXIS2_PLACEMENT_3D('',#468,#385,#386);
#330=AXIS2_PLACEMENT_3D('',#472,#389,#390);
#331=AXIS2_PLACEMENT_3D('',#476,#393,#394);
#332=AXIS2_PLACEMENT_3D('',#480,#397,#398);
#333=AXIS2_PLACEMENT_3D('',#484,#401,#402);
#334=AXIS2_PLACEMENT_3D('',#486,#404,#405);
#335=DIRECTION('axis',(0.,0.,1.));
#336=DIRECTION('refdir',(1.,0.,0.));
#337=DIRECTION('center_axis',(0.,0.,1.));
#338=DIRECTION('ref_axis',(1.,0.,0.));
#339=DIRECTION('',(0.,1.,0.));
#340=DIRECTION('',(1.,0.,0.));
#341=DIRECTION('',(0.,-1.,0.));
#342=DIRECTION('',(1.,0.,0.));
#343=DIRECTION('',(0.,1.,0.));
#344=DIRECTION('',(1.,0.,0.));
#345=DIRECTION('',(0.,-1.,0.));
#346=DIRECTION('',(1.,0.,0.));
#347=DIRECTION('',(0.,1.,0.));
#348=DIRECTION('',(1.,0.,0.));
#349=DIRECTION('',(0.,-1.,0.));
#350=DIRECTION('',(-0.707106781186548,0.707106781186548,0.));
#351=DIRECTION('',(-0.707106781186548,-0.707106781186548,0.));
#352=DIRECTION('center_axis',(-1.,0.,0.));
#353=DIRECTION('ref_axis',(0.,0.,1.));
#354=DIRECTION('',(0.,1.,0.));
#355=DIRECTION('',(0.,0.,-1.));
#356=DIRECTION('',(0.,0.,-1.));
#357=DIRECTION('center_axis',(0.,-1.,0.));
#358=DIRECTION('ref_axis',(0.,0.,-1.));
#359=DIRECTION('',(-1.,0.,0.));
#360=DIRECTION('',(0.,0.,-1.));
#361=DIRECTION('center_axis',(1.,0.,0.));
#362=DIRECTION('ref_axis',(0.,0.,-1.));
#363=DIRECTION('',(0.,-1.,0.));
#364=DIRECTION('',(0.,0.,-1.));
#365=DIRECTION('center_axis',(0.,-1.,0.));
#366=DIRECTION('ref_axis',(0.,0.,-1.));
#367=DIRECTION('',(-1.,0.,0.));
#368=DIRECTION('',(0.,0.,-1.));
#369=DIRECTION('center_axis',(-1.,0.,0.));
#370=DIRECTION('ref_axis',(0.,0.,1.));
#371=DIRECTION('',(0.,1.,0.));
#372=DIRECTION('',(0.,0.,-1.));
#373=DIRECTION('center_axis',(0.,-1.,0.));
#374=DIRECTION('ref_axis',(0.,0.,-1.));
#375=DIRECTION('',(-1.,0.,0.));
#376=DIRECTION('',(0.,0.,-1.));
#377=DIRECTION('center_axis',(1.,0.,0.));
#378=DIRECTION('ref_axis',(0.,0.,-1.));
#379=DIRECTION('',(0.,-1.,0.));
#380=DIRECTION('',(0.,0.,-1.));
#381=DIRECTION('center_axis',(0.,-1.,0.));
#382=DIRECTION('ref_axis',(0.,0.,-1.));
#383=DIRECTION('',(-1.,0.,0.));
#384=DIRECTION('',(0.,0.,-1.));
#385=DIRECTION('center_axis',(-1.,0.,0.));
#386=DIRECTION('ref_axis',(0.,0.,1.));
#387=DIRECTION('',(0.,1.,0.));
#388=DIRECTION('',(0.,0.,-1.));
#389=DIRECTION('center_axis',(0.707106781186548,0.707106781186548,0.));
#390=DIRECTION('ref_axis',(0.,0.,-1.));
#391=DIRECTION('',(0.707106781186548,-0.707106781186548,0.));
#392=DIRECTION('',(0.,0.,-1.));
#393=DIRECTION('center_axis',(-0.707106781186548,0.707106781186548,0.));
#394=DIRECTION('ref_axis',(0.,0.,1.));
#395=DIRECTION('',(0.707106781186548,0.707106781186548,0.));
#396=DIRECTION('',(0.,0.,-1.));
#397=DIRECTION('center_axis',(1.,0.,0.));
#398=DIRECTION('ref_axis',(0.,0.,-1.));
#399=DIRECTION('',(0.,-1.,0.));
#400=DIRECTION('',(0.,0.,1.));
#401=DIRECTION('center_axis',(0.,-1.,0.));
#402=DIRECTION('ref_axis',(0.,0.,-1.));
#403=DIRECTION('',(-1.,0.,0.));
#404=DIRECTION('center_axis',(0.,0.,1.));
#405=DIRECTION('ref_axis',(1.,0.,0.));
#406=CARTESIAN_POINT('',(0.,0.,0.));
#407=CARTESIAN_POINT('Origin',(2.77555756156289E-16,7.81083478299471,-8.));
#408=CARTESIAN_POINT('',(10.,0.,-8.));
#409=CARTESIAN_POINT('',(10.,18.,-8.));
#410=CARTESIAN_POINT('',(10.,18.,-8.));
#411=CARTESIAN_POINT('',(7.,0.,-8.));
#412=CARTESIAN_POINT('',(10.,0.,-8.));
#413=CARTESIAN_POINT('',(7.,1.5,-8.));
#414=CARTESIAN_POINT('',(7.,0.,-8.));
#415=CARTESIAN_POINT('',(4.,1.5,-8.));
#416=CARTESIAN_POINT('',(7.,1.5,-8.));
#417=CARTESIAN_POINT('',(4.,0.,-8.));
#418=CARTESIAN_POINT('',(4.,1.5,-8.));
#419=CARTESIAN_POINT('',(-4.,0.,-8.));
#420=CARTESIAN_POINT('',(4.,0.,-8.));
#421=CARTESIAN_POINT('',(-4.,1.5,-8.));
#422=CARTESIAN_POINT('',(-4.,0.,-8.));
#423=CARTESIAN_POINT('',(-7.,1.5,-8.));
#424=CARTESIAN_POINT('',(-4.,1.5,-8.));
#425=CARTESIAN_POINT('',(-7.,0.,-8.));
#426=CARTESIAN_POINT('',(-7.,1.5,-8.));
#427=CARTESIAN_POINT('',(-10.,0.,-8.));
#428=CARTESIAN_POINT('',(-7.,0.,-8.));
#429=CARTESIAN_POINT('',(-10.,18.,-8.));
#430=CARTESIAN_POINT('',(-10.,0.,-8.));
#431=CARTESIAN_POINT('',(0.,8.,-8.));
#432=CARTESIAN_POINT('',(-10.,18.,-8.));
#433=CARTESIAN_POINT('',(0.,8.,-8.));
#434=CARTESIAN_POINT('Origin',(7.,0.,0.));
#435=CARTESIAN_POINT('',(7.,0.,8.));
#436=CARTESIAN_POINT('',(7.,1.5,8.));
#437=CARTESIAN_POINT('',(7.,0.,8.));
#438=CARTESIAN_POINT('',(7.,1.5,0.));
#439=CARTESIAN_POINT('',(7.,0.,0.));
#440=CARTESIAN_POINT('Origin',(7.,1.5,0.));
#441=CARTESIAN_POINT('',(4.,1.5,8.));
#442=CARTESIAN_POINT('',(7.,1.5,8.));
#443=CARTESIAN_POINT('',(4.,1.5,0.));
#444=CARTESIAN_POINT('Origin',(4.,1.5,0.));
#445=CARTESIAN_POINT('',(4.,0.,8.));
#446=CARTESIAN_POINT('',(4.,1.5,8.));
#447=CARTESIAN_POINT('',(4.,0.,0.));
#448=CARTESIAN_POINT('Origin',(4.,0.,0.));
#449=CARTESIAN_POINT('',(-4.,0.,8.));
#450=CARTESIAN_POINT('',(4.,0.,8.));
#451=CARTESIAN_POINT('',(-4.,0.,0.));
#452=CARTESIAN_POINT('Origin',(-4.,0.,0.));
#453=CARTESIAN_POINT('',(-4.,1.5,8.));
#454=CARTESIAN_POINT('',(-4.,0.,8.));
#455=CARTESIAN_POINT('',(-4.,1.5,0.));
#456=CARTESIAN_POINT('Origin',(-4.,1.5,0.));
#457=CARTESIAN_POINT('',(-7.,1.5,8.));
#458=CARTESIAN_POINT('',(-4.,1.5,8.));
#459=CARTESIAN_POINT('',(-7.,1.5,0.));
#460=CARTESIAN_POINT('Origin',(-7.,1.5,0.));
#461=CARTESIAN_POINT('',(-7.,0.,8.));
#462=CARTESIAN_POINT('',(-7.,1.5,8.));
#463=CARTESIAN_POINT('',(-7.,0.,0.));
#464=CARTESIAN_POINT('Origin',(-7.,0.,0.));
#465=CARTESIAN_POINT('',(-10.,0.,8.));
#466=CARTESIAN_POINT('',(-7.,0.,8.));
#467=CARTESIAN_POINT('',(-10.,0.,0.));
#468=CARTESIAN_POINT('Origin',(-10.,0.,0.));
#469=CARTESIAN_POINT('',(-10.,18.,8.));
#470=CARTESIAN_POINT('',(-10.,0.,8.));
#471=CARTESIAN_POINT('',(-10.,18.,0.));
#472=CARTESIAN_POINT('Origin',(-10.,18.,0.));
#473=CARTESIAN_POINT('',(0.,8.,8.));
#474=CARTESIAN_POINT('',(-10.,18.,8.));
#475=CARTESIAN_POINT('',(0.,8.,0.));
#476=CARTESIAN_POINT('Origin',(0.,8.,0.));
#477=CARTESIAN_POINT('',(10.,18.,8.));
#478=CARTESIAN_POINT('',(0.,8.,8.));
#479=CARTESIAN_POINT('',(10.,18.,0.));
#480=CARTESIAN_POINT('Origin',(10.,18.,0.));
#481=CARTESIAN_POINT('',(10.,0.,8.));
#482=CARTESIAN_POINT('',(10.,18.,8.));
#483=CARTESIAN_POINT('',(10.,0.,0.));
#484=CARTESIAN_POINT('Origin',(10.,0.,0.));
#485=CARTESIAN_POINT('',(10.,0.,8.));
#486=CARTESIAN_POINT('Origin',(3.81639164714898E-16,7.81083478299471,8.));
#487=UNCERTAINTY_MEASURE_WITH_UNIT(LENGTH_MEASURE(0.01),#491,
'DISTANCE_ACCURACY_VALUE',
'Maximum model space distance between geometric entities at asserted c
onnectivities');
#488=UNCERTAINTY_MEASURE_WITH_UNIT(LENGTH_MEASURE(0.01),#491,
'DISTANCE_ACCURACY_VALUE',
'Maximum model space distance between geometric entities at asserted c
onnectivities');
#489=(
GEOMETRIC_REPRESENTATION_CONTEXT(3)
GLOBAL_UNCERTAINTY_ASSIGNED_CONTEXT((#487))
GLOBAL_UNIT_ASSIGNED_CONTEXT((#491,#493,#494))
REPRESENTATION_CONTEXT('','3D')
);
#490=(
GEOMETRIC_REPRESENTATION_CONTEXT(3)
GLOBAL_UNCERTAINTY_ASSIGNED_CONTEXT((#488))
GLOBAL_UNIT_ASSIGNED_CONTEXT((#491,#493,#494))
REPRESENTATION_CONTEXT('','3D')
);
#491=(
LENGTH_UNIT()
NAMED_UNIT(*)
SI_UNIT(.MILLI.,.METRE.)
);
#492=(
LENGTH_UNIT()
NAMED_UNIT(*)
SI_UNIT(.CENTI.,.METRE.)
);
#493=(
NAMED_UNIT(*)
PLANE_ANGLE_UNIT()
SI_UNIT($,.RADIAN.)
);
#494=(
NAMED_UNIT(*)
SI_UNIT($,.STERADIAN.)
SOLID_ANGLE_UNIT()
);
#495=SHAPE_DEFINITION_REPRESENTATION(#496,#497);
#496=PRODUCT_DEFINITION_SHAPE('',$,#499);
#497=SHAPE_REPRESENTATION('',(#319),#489);
#498=PRODUCT_DEFINITION_CONTEXT('part definition',#503,'design');
#499=PRODUCT_DEFINITION('WKZ-0070','E_3_01_10_18_00_WKZ-0070',#500,#498);
#500=PRODUCT_DEFINITION_FORMATION('',$,#505);
#501=PRODUCT_RELATED_PRODUCT_CATEGORY('E_3_01_10_18_00_WKZ-0070',
'E_3_01_10_18_00_WKZ-0070',(#505));
#502=APPLICATION_PROTOCOL_DEFINITION('international standard',
'automotive_design',2009,#503);
#503=APPLICATION_CONTEXT(
'Core Data for Automotive Mechanical Design Process');
#504=PRODUCT_CONTEXT('part definition',#503,'mechanical');
#505=PRODUCT('WKZ-0070','E_3_01_10_18_00_WKZ-0070',$,(#504));
#506=PRESENTATION_STYLE_ASSIGNMENT((#508));
#507=PRESENTATION_STYLE_ASSIGNMENT((#509));
#508=SURFACE_STYLE_USAGE(.BOTH.,#512);
#509=SURFACE_STYLE_USAGE(.BOTH.,#513);
#510=SURFACE_STYLE_RENDERING_WITH_PROPERTIES($,#520,(#511));
#511=SURFACE_STYLE_TRANSPARENT(0.);
#512=SURFACE_SIDE_STYLE('',(#514,#510));
#513=SURFACE_SIDE_STYLE('',(#515));
#514=SURFACE_STYLE_FILL_AREA(#516);
#515=SURFACE_STYLE_FILL_AREA(#517);
#516=FILL_AREA_STYLE('',(#518));
#517=FILL_AREA_STYLE('',(#519));
#518=FILL_AREA_STYLE_COLOUR('',#520);
#519=FILL_AREA_STYLE_COLOUR('',#521);
#520=COLOUR_RGB('',0.92156862745098,0.92156862745098,0.92156862745098);
#521=COLOUR_RGB('',0.16078431372549,0.16078431372549,0.16078431372549);
ENDSEC;
END-ISO-10303-21;
