ISO-10303-21;
HEADER;
/* Generated by software containing ST-Developer
 * from STEP Tools, Inc. (www.steptools.com) 
 */

FILE_DESCRIPTION(
/* description */ (''),
/* implementation_level */ '2;1');

FILE_NAME(
/* name */ 'E_3_01_10_18_00_WKZ-0066.stp',
/* time_stamp */ '2025-11-24T11:08:14+01:00',
/* author */ ('d.fischer'),
/* organization */ (''),
/* preprocessor_version */ 'ST-DEVELOPER v20',
/* originating_system */ 'Autodesk Inventor 2025',
/* authorisation */ '');

FILE_SCHEMA (('AUTOMOTIVE_DESIGN { 1 0 10303 214 3 1 1 }'));
ENDSEC;

DATA;
#10=MECHANICAL_DESIGN_GEOMETRIC_PRESENTATION_REPRESENTATION('',(#14,#15),
#397);
#11=SHAPE_REPRESENTATION_RELATIONSHIP('SRR','None',#404,#12);
#12=ADVANCED_BREP_SHAPE_REPRESENTATION('',(#13),#396);
#13=MANIFOLD_SOLID_BREP('Volumenk\X\F6rper1',#228);
#14=STYLED_ITEM('',(#414),#226);
#15=STYLED_ITEM('',(#413),#13);
#16=CYLINDRICAL_SURFACE('',#257,16.);
#17=CYLINDRICAL_SURFACE('',#260,3.00000000000001);
#18=CYLINDRICAL_SURFACE('',#263,16.);
#19=FACE_OUTER_BOUND('',#31,.T.);
#20=FACE_OUTER_BOUND('',#32,.T.);
#21=FACE_OUTER_BOUND('',#33,.T.);
#22=FACE_OUTER_BOUND('',#34,.T.);
#23=FACE_OUTER_BOUND('',#35,.T.);
#24=FACE_OUTER_BOUND('',#36,.T.);
#25=FACE_OUTER_BOUND('',#37,.T.);
#26=FACE_OUTER_BOUND('',#38,.T.);
#27=FACE_OUTER_BOUND('',#39,.T.);
#28=FACE_OUTER_BOUND('',#40,.T.);
#29=FACE_OUTER_BOUND('',#41,.T.);
#30=FACE_OUTER_BOUND('',#42,.T.);
#31=EDGE_LOOP('',(#147,#148,#149,#150,#151,#152,#153,#154,#155,#156));
#32=EDGE_LOOP('',(#157,#158,#159,#160));
#33=EDGE_LOOP('',(#161,#162,#163,#164));
#34=EDGE_LOOP('',(#165,#166,#167,#168));
#35=EDGE_LOOP('',(#169,#170,#171,#172));
#36=EDGE_LOOP('',(#173,#174,#175,#176));
#37=EDGE_LOOP('',(#177,#178,#179,#180));
#38=EDGE_LOOP('',(#181,#182,#183,#184));
#39=EDGE_LOOP('',(#185,#186,#187,#188));
#40=EDGE_LOOP('',(#189,#190,#191,#192));
#41=EDGE_LOOP('',(#193,#194,#195,#196));
#42=EDGE_LOOP('',(#197,#198,#199,#200,#201,#202,#203,#204,#205,#206));
#43=CIRCLE('',#252,16.);
#44=CIRCLE('',#253,3.00000000000001);
#45=CIRCLE('',#254,16.);
#46=CIRCLE('',#258,16.);
#47=CIRCLE('',#261,3.00000000000001);
#48=CIRCLE('',#264,16.);
#49=LINE('',#335,#73);
#50=LINE('',#337,#74);
#51=LINE('',#339,#75);
#52=LINE('',#341,#76);
#53=LINE('',#345,#77);
#54=LINE('',#349,#78);
#55=LINE('',#352,#79);
#56=LINE('',#356,#80);
#57=LINE('',#357,#81);
#58=LINE('',#358,#82);
#59=LINE('',#361,#83);
#60=LINE('',#362,#84);
#61=LINE('',#366,#85);
#62=LINE('',#369,#86);
#63=LINE('',#370,#87);
#64=LINE('',#374,#88);
#65=LINE('',#377,#89);
#66=LINE('',#378,#90);
#67=LINE('',#382,#91);
#68=LINE('',#385,#92);
#69=LINE('',#386,#93);
#70=LINE('',#389,#94);
#71=LINE('',#390,#95);
#72=LINE('',#392,#96);
#73=VECTOR('',#273,10.);
#74=VECTOR('',#274,10.);
#75=VECTOR('',#275,10.);
#76=VECTOR('',#276,10.);
#77=VECTOR('',#279,10.);
#78=VECTOR('',#282,10.);
#79=VECTOR('',#285,10.);
#80=VECTOR('',#288,10.);
#81=VECTOR('',#289,10.);
#82=VECTOR('',#290,10.);
#83=VECTOR('',#293,10.);
#84=VECTOR('',#294,10.);
#85=VECTOR('',#299,10.);
#86=VECTOR('',#302,10.);
#87=VECTOR('',#303,10.);
#88=VECTOR('',#308,10.);
#89=VECTOR('',#311,10.);
#90=VECTOR('',#312,10.);
#91=VECTOR('',#317,10.);
#92=VECTOR('',#320,10.);
#93=VECTOR('',#321,10.);
#94=VECTOR('',#324,10.);
#95=VECTOR('',#325,10.);
#96=VECTOR('',#328,10.);
#97=VERTEX_POINT('',#333);
#98=VERTEX_POINT('',#334);
#99=VERTEX_POINT('',#336);
#100=VERTEX_POINT('',#338);
#101=VERTEX_POINT('',#340);
#102=VERTEX_POINT('',#342);
#103=VERTEX_POINT('',#344);
#104=VERTEX_POINT('',#346);
#105=VERTEX_POINT('',#348);
#106=VERTEX_POINT('',#350);
#107=VERTEX_POINT('',#354);
#108=VERTEX_POINT('',#355);
#109=VERTEX_POINT('',#360);
#110=VERTEX_POINT('',#364);
#111=VERTEX_POINT('',#368);
#112=VERTEX_POINT('',#372);
#113=VERTEX_POINT('',#376);
#114=VERTEX_POINT('',#380);
#115=VERTEX_POINT('',#384);
#116=VERTEX_POINT('',#388);
#117=EDGE_CURVE('',#97,#98,#49,.T.);
#118=EDGE_CURVE('',#99,#97,#50,.T.);
#119=EDGE_CURVE('',#100,#99,#51,.T.);
#120=EDGE_CURVE('',#101,#100,#52,.T.);
#121=EDGE_CURVE('',#102,#101,#43,.T.);
#122=EDGE_CURVE('',#103,#102,#53,.T.);
#123=EDGE_CURVE('',#104,#103,#44,.T.);
#124=EDGE_CURVE('',#105,#104,#54,.T.);
#125=EDGE_CURVE('',#106,#105,#45,.T.);
#126=EDGE_CURVE('',#98,#106,#55,.T.);
#127=EDGE_CURVE('',#107,#108,#56,.T.);
#128=EDGE_CURVE('',#108,#100,#57,.T.);
#129=EDGE_CURVE('',#107,#99,#58,.T.);
#130=EDGE_CURVE('',#108,#109,#59,.T.);
#131=EDGE_CURVE('',#109,#101,#60,.T.);
#132=EDGE_CURVE('',#109,#110,#46,.T.);
#133=EDGE_CURVE('',#110,#102,#61,.T.);
#134=EDGE_CURVE('',#110,#111,#62,.T.);
#135=EDGE_CURVE('',#111,#103,#63,.T.);
#136=EDGE_CURVE('',#111,#112,#47,.T.);
#137=EDGE_CURVE('',#112,#104,#64,.T.);
#138=EDGE_CURVE('',#112,#113,#65,.T.);
#139=EDGE_CURVE('',#113,#105,#66,.T.);
#140=EDGE_CURVE('',#113,#114,#48,.T.);
#141=EDGE_CURVE('',#114,#106,#67,.T.);
#142=EDGE_CURVE('',#114,#115,#68,.T.);
#143=EDGE_CURVE('',#115,#98,#69,.T.);
#144=EDGE_CURVE('',#115,#116,#70,.T.);
#145=EDGE_CURVE('',#97,#116,#71,.T.);
#146=EDGE_CURVE('',#116,#107,#72,.T.);
#147=ORIENTED_EDGE('',*,*,#117,.F.);
#148=ORIENTED_EDGE('',*,*,#118,.F.);
#149=ORIENTED_EDGE('',*,*,#119,.F.);
#150=ORIENTED_EDGE('',*,*,#120,.F.);
#151=ORIENTED_EDGE('',*,*,#121,.F.);
#152=ORIENTED_EDGE('',*,*,#122,.F.);
#153=ORIENTED_EDGE('',*,*,#123,.F.);
#154=ORIENTED_EDGE('',*,*,#124,.F.);
#155=ORIENTED_EDGE('',*,*,#125,.F.);
#156=ORIENTED_EDGE('',*,*,#126,.F.);
#157=ORIENTED_EDGE('',*,*,#127,.T.);
#158=ORIENTED_EDGE('',*,*,#128,.T.);
#159=ORIENTED_EDGE('',*,*,#119,.T.);
#160=ORIENTED_EDGE('',*,*,#129,.F.);
#161=ORIENTED_EDGE('',*,*,#130,.T.);
#162=ORIENTED_EDGE('',*,*,#131,.T.);
#163=ORIENTED_EDGE('',*,*,#120,.T.);
#164=ORIENTED_EDGE('',*,*,#128,.F.);
#165=ORIENTED_EDGE('',*,*,#132,.T.);
#166=ORIENTED_EDGE('',*,*,#133,.T.);
#167=ORIENTED_EDGE('',*,*,#121,.T.);
#168=ORIENTED_EDGE('',*,*,#131,.F.);
#169=ORIENTED_EDGE('',*,*,#134,.T.);
#170=ORIENTED_EDGE('',*,*,#135,.T.);
#171=ORIENTED_EDGE('',*,*,#122,.T.);
#172=ORIENTED_EDGE('',*,*,#133,.F.);
#173=ORIENTED_EDGE('',*,*,#136,.T.);
#174=ORIENTED_EDGE('',*,*,#137,.T.);
#175=ORIENTED_EDGE('',*,*,#123,.T.);
#176=ORIENTED_EDGE('',*,*,#135,.F.);
#177=ORIENTED_EDGE('',*,*,#138,.T.);
#178=ORIENTED_EDGE('',*,*,#139,.T.);
#179=ORIENTED_EDGE('',*,*,#124,.T.);
#180=ORIENTED_EDGE('',*,*,#137,.F.);
#181=ORIENTED_EDGE('',*,*,#140,.T.);
#182=ORIENTED_EDGE('',*,*,#141,.T.);
#183=ORIENTED_EDGE('',*,*,#125,.T.);
#184=ORIENTED_EDGE('',*,*,#139,.F.);
#185=ORIENTED_EDGE('',*,*,#142,.T.);
#186=ORIENTED_EDGE('',*,*,#143,.T.);
#187=ORIENTED_EDGE('',*,*,#126,.T.);
#188=ORIENTED_EDGE('',*,*,#141,.F.);
#189=ORIENTED_EDGE('',*,*,#144,.T.);
#190=ORIENTED_EDGE('',*,*,#145,.F.);
#191=ORIENTED_EDGE('',*,*,#117,.T.);
#192=ORIENTED_EDGE('',*,*,#143,.F.);
#193=ORIENTED_EDGE('',*,*,#146,.T.);
#194=ORIENTED_EDGE('',*,*,#129,.T.);
#195=ORIENTED_EDGE('',*,*,#118,.T.);
#196=ORIENTED_EDGE('',*,*,#145,.T.);
#197=ORIENTED_EDGE('',*,*,#127,.F.);
#198=ORIENTED_EDGE('',*,*,#146,.F.);
#199=ORIENTED_EDGE('',*,*,#144,.F.);
#200=ORIENTED_EDGE('',*,*,#142,.F.);
#201=ORIENTED_EDGE('',*,*,#140,.F.);
#202=ORIENTED_EDGE('',*,*,#138,.F.);
#203=ORIENTED_EDGE('',*,*,#136,.F.);
#204=ORIENTED_EDGE('',*,*,#134,.F.);
#205=ORIENTED_EDGE('',*,*,#132,.F.);
#206=ORIENTED_EDGE('',*,*,#130,.F.);
#207=PLANE('',#251);
#208=PLANE('',#255);
#209=PLANE('',#256);
#210=PLANE('',#259);
#211=PLANE('',#262);
#212=PLANE('',#265);
#213=PLANE('',#266);
#214=PLANE('',#267);
#215=PLANE('',#268);
#216=ADVANCED_FACE('',(#19),#207,.F.);
#217=ADVANCED_FACE('',(#20),#208,.T.);
#218=ADVANCED_FACE('',(#21),#209,.T.);
#219=ADVANCED_FACE('',(#22),#16,.T.);
#220=ADVANCED_FACE('',(#23),#210,.T.);
#221=ADVANCED_FACE('',(#24),#17,.F.);
#222=ADVANCED_FACE('',(#25),#211,.T.);
#223=ADVANCED_FACE('',(#26),#18,.T.);
#224=ADVANCED_FACE('',(#27),#212,.T.);
#225=ADVANCED_FACE('',(#28),#213,.T.);
#226=ADVANCED_FACE('',(#29),#214,.T.);
#227=ADVANCED_FACE('',(#30),#215,.T.);
#228=CLOSED_SHELL('',(#216,#217,#218,#219,#220,#221,#222,#223,#224,#225,
#226,#227));
#229=DERIVED_UNIT_ELEMENT(#232,1.);
#230=DERIVED_UNIT_ELEMENT(#399,-3.);
#231=DIMENSIONAL_EXPONENTS(0.,1.,0.,0.,0.,0.,0.);
#232=(
CONVERSION_BASED_UNIT('gram',#234)
MASS_UNIT()
NAMED_UNIT(#231)
);
#233=(
MASS_UNIT()
NAMED_UNIT(*)
SI_UNIT(.KILO.,.GRAM.)
);
#234=MASS_MEASURE_WITH_UNIT(MASS_MEASURE(0.001),#233);
#235=DERIVED_UNIT((#229,#230));
#236=MEASURE_REPRESENTATION_ITEM('density measure',
POSITIVE_RATIO_MEASURE(8.03),#235);
#237=PROPERTY_DEFINITION_REPRESENTATION(#242,#239);
#238=PROPERTY_DEFINITION_REPRESENTATION(#243,#240);
#239=REPRESENTATION('material name',(#241),#396);
#240=REPRESENTATION('density',(#236),#396);
#241=DESCRIPTIVE_REPRESENTATION_ITEM('1.4301','1.4301');
#242=PROPERTY_DEFINITION('material property','material name',#406);
#243=PROPERTY_DEFINITION('material property','density of part',#406);
#244=DATE_TIME_ROLE('creation_date');
#245=APPLIED_DATE_AND_TIME_ASSIGNMENT(#246,#244,(#406));
#246=DATE_AND_TIME(#247,#248);
#247=CALENDAR_DATE(2011,20,10);
#248=LOCAL_TIME(0,0,0.,#249);
#249=COORDINATED_UNIVERSAL_TIME_OFFSET(0,0,.BEHIND.);
#250=AXIS2_PLACEMENT_3D('',#331,#269,#270);
#251=AXIS2_PLACEMENT_3D('',#332,#271,#272);
#252=AXIS2_PLACEMENT_3D('',#343,#277,#278);
#253=AXIS2_PLACEMENT_3D('',#347,#280,#281);
#254=AXIS2_PLACEMENT_3D('',#351,#283,#284);
#255=AXIS2_PLACEMENT_3D('',#353,#286,#287);
#256=AXIS2_PLACEMENT_3D('',#359,#291,#292);
#257=AXIS2_PLACEMENT_3D('',#363,#295,#296);
#258=AXIS2_PLACEMENT_3D('',#365,#297,#298);
#259=AXIS2_PLACEMENT_3D('',#367,#300,#301);
#260=AXIS2_PLACEMENT_3D('',#371,#304,#305);
#261=AXIS2_PLACEMENT_3D('',#373,#306,#307);
#262=AXIS2_PLACEMENT_3D('',#375,#309,#310);
#263=AXIS2_PLACEMENT_3D('',#379,#313,#314);
#264=AXIS2_PLACEMENT_3D('',#381,#315,#316);
#265=AXIS2_PLACEMENT_3D('',#383,#318,#319);
#266=AXIS2_PLACEMENT_3D('',#387,#322,#323);
#267=AXIS2_PLACEMENT_3D('',#391,#326,#327);
#268=AXIS2_PLACEMENT_3D('',#393,#329,#330);
#269=DIRECTION('axis',(0.,0.,1.));
#270=DIRECTION('refdir',(1.,0.,0.));
#271=DIRECTION('center_axis',(0.,0.,1.));
#272=DIRECTION('ref_axis',(1.,0.,0.));
#273=DIRECTION('',(0.,1.,0.));
#274=DIRECTION('',(1.,0.,0.));
#275=DIRECTION('',(0.,-1.,0.));
#276=DIRECTION('',(-1.,0.,0.));
#277=DIRECTION('center_axis',(0.,0.,1.));
#278=DIRECTION('ref_axis',(-0.67559020761566,-0.737277336810124,0.));
#279=DIRECTION('',(-0.737277336810124,0.67559020761566,0.));
#280=DIRECTION('center_axis',(0.,0.,-1.));
#281=DIRECTION('ref_axis',(-0.67559020761566,-0.737277336810124,0.));
#282=DIRECTION('',(-0.737277336810124,-0.67559020761566,0.));
#283=DIRECTION('center_axis',(0.,0.,1.));
#284=DIRECTION('ref_axis',(-2.77555756156289E-16,-1.,0.));
#285=DIRECTION('',(-1.,0.,0.));
#286=DIRECTION('center_axis',(-1.,0.,0.));
#287=DIRECTION('ref_axis',(0.,0.,1.));
#288=DIRECTION('',(0.,1.,0.));
#289=DIRECTION('',(0.,0.,-1.));
#290=DIRECTION('',(0.,0.,-1.));
#291=DIRECTION('center_axis',(0.,1.,0.));
#292=DIRECTION('ref_axis',(0.,0.,1.));
#293=DIRECTION('',(1.,0.,0.));
#294=DIRECTION('',(0.,0.,-1.));
#295=DIRECTION('center_axis',(0.,0.,1.));
#296=DIRECTION('ref_axis',(-0.67559020761566,-0.737277336810124,0.));
#297=DIRECTION('center_axis',(0.,0.,-1.));
#298=DIRECTION('ref_axis',(-0.67559020761566,-0.737277336810124,0.));
#299=DIRECTION('',(0.,0.,-1.));
#300=DIRECTION('center_axis',(0.67559020761566,0.737277336810124,0.));
#301=DIRECTION('ref_axis',(0.,0.,-1.));
#302=DIRECTION('',(0.737277336810124,-0.67559020761566,0.));
#303=DIRECTION('',(0.,0.,-1.));
#304=DIRECTION('center_axis',(0.,0.,1.));
#305=DIRECTION('ref_axis',(-0.67559020761566,-0.737277336810124,0.));
#306=DIRECTION('center_axis',(0.,0.,1.));
#307=DIRECTION('ref_axis',(-0.67559020761566,-0.737277336810124,0.));
#308=DIRECTION('',(0.,0.,-1.));
#309=DIRECTION('center_axis',(-0.67559020761566,0.737277336810124,0.));
#310=DIRECTION('ref_axis',(0.,0.,1.));
#311=DIRECTION('',(0.737277336810124,0.67559020761566,0.));
#312=DIRECTION('',(0.,0.,-1.));
#313=DIRECTION('center_axis',(0.,0.,1.));
#314=DIRECTION('ref_axis',(-2.77555756156289E-16,-1.,0.));
#315=DIRECTION('center_axis',(0.,0.,-1.));
#316=DIRECTION('ref_axis',(-2.77555756156289E-16,-1.,0.));
#317=DIRECTION('',(0.,0.,-1.));
#318=DIRECTION('center_axis',(0.,1.,0.));
#319=DIRECTION('ref_axis',(0.,0.,1.));
#320=DIRECTION('',(1.,0.,0.));
#321=DIRECTION('',(0.,0.,-1.));
#322=DIRECTION('center_axis',(1.,0.,0.));
#323=DIRECTION('ref_axis',(0.,0.,-1.));
#324=DIRECTION('',(0.,-1.,0.));
#325=DIRECTION('',(0.,0.,1.));
#326=DIRECTION('center_axis',(0.,-1.,0.));
#327=DIRECTION('ref_axis',(0.,0.,-1.));
#328=DIRECTION('',(-1.,0.,0.));
#329=DIRECTION('center_axis',(0.,0.,1.));
#330=DIRECTION('ref_axis',(1.,0.,0.));
#331=CARTESIAN_POINT('',(0.,0.,0.));
#332=CARTESIAN_POINT('Origin',(-1.11022302462516E-15,-1.91997055218188,
-5.));
#333=CARTESIAN_POINT('',(37.5,-15.,-5.));
#334=CARTESIAN_POINT('',(37.5,15.,-5.));
#335=CARTESIAN_POINT('',(37.5,15.,-5.));
#336=CARTESIAN_POINT('',(-37.5,-15.,-5.));
#337=CARTESIAN_POINT('',(37.5,-15.,-5.));
#338=CARTESIAN_POINT('',(-37.5,15.,-5.));
#339=CARTESIAN_POINT('',(-37.5,-15.,-5.));
#340=CARTESIAN_POINT('',(-29.2148659265922,15.,-5.));
#341=CARTESIAN_POINT('',(-37.5,15.,-5.));
#342=CARTESIAN_POINT('',(-18.4054226047417,10.796437388962,-5.));
#343=CARTESIAN_POINT('Origin',(-29.2148659265922,-0.999999999999998,-5.));
#344=CARTESIAN_POINT('',(-2.02677062284698,-4.21183201043038,-5.));
#345=CARTESIAN_POINT('',(-18.4054226047417,10.796437388962,-5.));
#346=CARTESIAN_POINT('',(2.02677062284698,-4.21183201043038,-5.));
#347=CARTESIAN_POINT('Origin',(0.,-2.,-5.));
#348=CARTESIAN_POINT('',(18.4054226047417,10.796437388962,-5.));
#349=CARTESIAN_POINT('',(2.02677062284698,-4.21183201043038,-5.));
#350=CARTESIAN_POINT('',(29.2148659265922,15.,-5.));
#351=CARTESIAN_POINT('Origin',(29.2148659265922,-0.999999999999998,-5.));
#352=CARTESIAN_POINT('',(29.2148659265922,15.,-5.));
#353=CARTESIAN_POINT('Origin',(-37.5,-15.,0.));
#354=CARTESIAN_POINT('',(-37.5,-15.,5.));
#355=CARTESIAN_POINT('',(-37.5,15.,5.));
#356=CARTESIAN_POINT('',(-37.5,-15.,5.));
#357=CARTESIAN_POINT('',(-37.5,15.,0.));
#358=CARTESIAN_POINT('',(-37.5,-15.,0.));
#359=CARTESIAN_POINT('Origin',(-37.5,15.,0.));
#360=CARTESIAN_POINT('',(-29.2148659265922,15.,5.));
#361=CARTESIAN_POINT('',(-37.5,15.,5.));
#362=CARTESIAN_POINT('',(-29.2148659265922,15.,0.));
#363=CARTESIAN_POINT('Origin',(-29.2148659265922,-0.999999999999998,0.));
#364=CARTESIAN_POINT('',(-18.4054226047417,10.796437388962,5.));
#365=CARTESIAN_POINT('Origin',(-29.2148659265922,-0.999999999999998,5.));
#366=CARTESIAN_POINT('',(-18.4054226047417,10.796437388962,0.));
#367=CARTESIAN_POINT('Origin',(-18.4054226047417,10.796437388962,0.));
#368=CARTESIAN_POINT('',(-2.02677062284698,-4.21183201043038,5.));
#369=CARTESIAN_POINT('',(-18.4054226047417,10.796437388962,5.));
#370=CARTESIAN_POINT('',(-2.02677062284698,-4.21183201043038,0.));
#371=CARTESIAN_POINT('Origin',(0.,-2.,0.));
#372=CARTESIAN_POINT('',(2.02677062284698,-4.21183201043038,5.));
#373=CARTESIAN_POINT('Origin',(0.,-2.,5.));
#374=CARTESIAN_POINT('',(2.02677062284698,-4.21183201043038,0.));
#375=CARTESIAN_POINT('Origin',(2.02677062284698,-4.21183201043038,0.));
#376=CARTESIAN_POINT('',(18.4054226047417,10.796437388962,5.));
#377=CARTESIAN_POINT('',(2.02677062284698,-4.21183201043038,5.));
#378=CARTESIAN_POINT('',(18.4054226047417,10.796437388962,0.));
#379=CARTESIAN_POINT('Origin',(29.2148659265922,-0.999999999999998,0.));
#380=CARTESIAN_POINT('',(29.2148659265922,15.,5.));
#381=CARTESIAN_POINT('Origin',(29.2148659265922,-0.999999999999998,5.));
#382=CARTESIAN_POINT('',(29.2148659265922,15.,0.));
#383=CARTESIAN_POINT('Origin',(29.2148659265922,15.,0.));
#384=CARTESIAN_POINT('',(37.5,15.,5.));
#385=CARTESIAN_POINT('',(29.2148659265922,15.,5.));
#386=CARTESIAN_POINT('',(37.5,15.,0.));
#387=CARTESIAN_POINT('Origin',(37.5,15.,0.));
#388=CARTESIAN_POINT('',(37.5,-15.,5.));
#389=CARTESIAN_POINT('',(37.5,15.,5.));
#390=CARTESIAN_POINT('',(37.5,-15.,0.));
#391=CARTESIAN_POINT('Origin',(37.5,-15.,0.));
#392=CARTESIAN_POINT('',(37.5,-15.,5.));
#393=CARTESIAN_POINT('Origin',(-1.11022302462516E-15,-1.91997055218188,
5.));
#394=UNCERTAINTY_MEASURE_WITH_UNIT(LENGTH_MEASURE(0.01),#398,
'DISTANCE_ACCURACY_VALUE',
'Maximum model space distance between geometric entities at asserted c
onnectivities');
#395=UNCERTAINTY_MEASURE_WITH_UNIT(LENGTH_MEASURE(0.01),#398,
'DISTANCE_ACCURACY_VALUE',
'Maximum model space distance between geometric entities at asserted c
onnectivities');
#396=(
GEOMETRIC_REPRESENTATION_CONTEXT(3)
GLOBAL_UNCERTAINTY_ASSIGNED_CONTEXT((#394))
GLOBAL_UNIT_ASSIGNED_CONTEXT((#398,#400,#401))
REPRESENTATION_CONTEXT('','3D')
);
#397=(
GEOMETRIC_REPRESENTATION_CONTEXT(3)
GLOBAL_UNCERTAINTY_ASSIGNED_CONTEXT((#395))
GLOBAL_UNIT_ASSIGNED_CONTEXT((#398,#400,#401))
REPRESENTATION_CONTEXT('','3D')
);
#398=(
LENGTH_UNIT()
NAMED_UNIT(*)
SI_UNIT(.MILLI.,.METRE.)
);
#399=(
LENGTH_UNIT()
NAMED_UNIT(*)
SI_UNIT(.CENTI.,.METRE.)
);
#400=(
NAMED_UNIT(*)
PLANE_ANGLE_UNIT()
SI_UNIT($,.RADIAN.)
);
#401=(
NAMED_UNIT(*)
SI_UNIT($,.STERADIAN.)
SOLID_ANGLE_UNIT()
);
#402=SHAPE_DEFINITION_REPRESENTATION(#403,#404);
#403=PRODUCT_DEFINITION_SHAPE('',$,#406);
#404=SHAPE_REPRESENTATION('',(#250),#396);
#405=PRODUCT_DEFINITION_CONTEXT('part definition',#410,'design');
#406=PRODUCT_DEFINITION('WKZ-0066','E_3_01_10_18_00_WKZ-0066',#407,#405);
#407=PRODUCT_DEFINITION_FORMATION('',$,#412);
#408=PRODUCT_RELATED_PRODUCT_CATEGORY('E_3_01_10_18_00_WKZ-0066',
'E_3_01_10_18_00_WKZ-0066',(#412));
#409=APPLICATION_PROTOCOL_DEFINITION('international standard',
'automotive_design',2009,#410);
#410=APPLICATION_CONTEXT(
'Core Data for Automotive Mechanical Design Process');
#411=PRODUCT_CONTEXT('part definition',#410,'mechanical');
#412=PRODUCT('WKZ-0066','E_3_01_10_18_00_WKZ-0066',$,(#411));
#413=PRESENTATION_STYLE_ASSIGNMENT((#415));
#414=PRESENTATION_STYLE_ASSIGNMENT((#416));
#415=SURFACE_STYLE_USAGE(.BOTH.,#419);
#416=SURFACE_STYLE_USAGE(.BOTH.,#420);
#417=SURFACE_STYLE_RENDERING_WITH_PROPERTIES($,#427,(#418));
#418=SURFACE_STYLE_TRANSPARENT(0.);
#419=SURFACE_SIDE_STYLE('',(#421,#417));
#420=SURFACE_SIDE_STYLE('',(#422));
#421=SURFACE_STYLE_FILL_AREA(#423);
#422=SURFACE_STYLE_FILL_AREA(#424);
#423=FILL_AREA_STYLE('',(#425));
#424=FILL_AREA_STYLE('',(#426));
#425=FILL_AREA_STYLE_COLOUR('',#427);
#426=FILL_AREA_STYLE_COLOUR('',#428);
#427=COLOUR_RGB('',0.92156862745098,0.92156862745098,0.92156862745098);
#428=COLOUR_RGB('',0.16078431372549,0.16078431372549,0.16078431372549);
ENDSEC;
END-ISO-10303-21;
