ISO-10303-21;
HEADER;
/* Generated by software containing ST-Developer
 * from STEP Tools, Inc. (www.steptools.com) 
 */

FILE_DESCRIPTION(
/* description */ (''),
/* implementation_level */ '2;1');

FILE_NAME(
/* name */ 'E_3_01_10_18_00_WKZ-0057.stp',
/* time_stamp */ '2025-11-24T10:50:47+01:00',
/* author */ ('d.fischer'),
/* organization */ (''),
/* preprocessor_version */ 'ST-DEVELOPER v20',
/* originating_system */ 'Autodesk Inventor 2025',
/* authorisation */ '');

FILE_SCHEMA (('AUTOMOTIVE_DESIGN { 1 0 10303 214 3 1 1 }'));
ENDSEC;

DATA;
#10=MECHANICAL_DESIGN_GEOMETRIC_PRESENTATION_REPRESENTATION('',(#14,#15),
#490);
#11=SHAPE_REPRESENTATION_RELATIONSHIP('SRR','None',#497,#12);
#12=ADVANCED_BREP_SHAPE_REPRESENTATION('',(#13),#489);
#13=MANIFOLD_SOLID_BREP('Volumenk\X\F6rper1',#297);
#14=STYLED_ITEM('',(#507),#285);
#15=STYLED_ITEM('',(#506),#13);
#16=FACE_OUTER_BOUND('',#31,.T.);
#17=FACE_OUTER_BOUND('',#32,.T.);
#18=FACE_OUTER_BOUND('',#33,.T.);
#19=FACE_OUTER_BOUND('',#34,.T.);
#20=FACE_OUTER_BOUND('',#35,.T.);
#21=FACE_OUTER_BOUND('',#36,.T.);
#22=FACE_OUTER_BOUND('',#37,.T.);
#23=FACE_OUTER_BOUND('',#38,.T.);
#24=FACE_OUTER_BOUND('',#39,.T.);
#25=FACE_OUTER_BOUND('',#40,.T.);
#26=FACE_OUTER_BOUND('',#41,.T.);
#27=FACE_OUTER_BOUND('',#42,.T.);
#28=FACE_OUTER_BOUND('',#43,.T.);
#29=FACE_OUTER_BOUND('',#44,.T.);
#30=FACE_OUTER_BOUND('',#45,.T.);
#31=EDGE_LOOP('',(#189,#190,#191,#192));
#32=EDGE_LOOP('',(#193,#194,#195,#196));
#33=EDGE_LOOP('',(#197,#198,#199,#200));
#34=EDGE_LOOP('',(#201,#202,#203,#204));
#35=EDGE_LOOP('',(#205,#206,#207,#208));
#36=EDGE_LOOP('',(#209,#210,#211,#212));
#37=EDGE_LOOP('',(#213,#214,#215,#216));
#38=EDGE_LOOP('',(#217,#218,#219,#220));
#39=EDGE_LOOP('',(#221,#222,#223,#224));
#40=EDGE_LOOP('',(#225,#226,#227,#228));
#41=EDGE_LOOP('',(#229,#230,#231,#232));
#42=EDGE_LOOP('',(#233,#234,#235,#236));
#43=EDGE_LOOP('',(#237,#238,#239,#240));
#44=EDGE_LOOP('',(#241,#242,#243,#244,#245,#246,#247,#248,#249,#250,#251,
#252,#253));
#45=EDGE_LOOP('',(#254,#255,#256,#257,#258,#259,#260,#261,#262,#263,#264,
#265,#266));
#46=LINE('',#410,#85);
#47=LINE('',#412,#86);
#48=LINE('',#414,#87);
#49=LINE('',#415,#88);
#50=LINE('',#418,#89);
#51=LINE('',#420,#90);
#52=LINE('',#421,#91);
#53=LINE('',#424,#92);
#54=LINE('',#426,#93);
#55=LINE('',#427,#94);
#56=LINE('',#430,#95);
#57=LINE('',#432,#96);
#58=LINE('',#433,#97);
#59=LINE('',#436,#98);
#60=LINE('',#438,#99);
#61=LINE('',#439,#100);
#62=LINE('',#442,#101);
#63=LINE('',#444,#102);
#64=LINE('',#445,#103);
#65=LINE('',#448,#104);
#66=LINE('',#450,#105);
#67=LINE('',#451,#106);
#68=LINE('',#454,#107);
#69=LINE('',#456,#108);
#70=LINE('',#457,#109);
#71=LINE('',#460,#110);
#72=LINE('',#462,#111);
#73=LINE('',#463,#112);
#74=LINE('',#466,#113);
#75=LINE('',#468,#114);
#76=LINE('',#469,#115);
#77=LINE('',#472,#116);
#78=LINE('',#474,#117);
#79=LINE('',#475,#118);
#80=LINE('',#478,#119);
#81=LINE('',#480,#120);
#82=LINE('',#481,#121);
#83=LINE('',#483,#122);
#84=LINE('',#484,#123);
#85=VECTOR('',#339,10.);
#86=VECTOR('',#340,10.);
#87=VECTOR('',#341,10.);
#88=VECTOR('',#342,10.);
#89=VECTOR('',#345,10.);
#90=VECTOR('',#346,10.);
#91=VECTOR('',#347,10.);
#92=VECTOR('',#350,10.);
#93=VECTOR('',#351,10.);
#94=VECTOR('',#352,10.);
#95=VECTOR('',#355,10.);
#96=VECTOR('',#356,10.);
#97=VECTOR('',#357,10.);
#98=VECTOR('',#360,10.);
#99=VECTOR('',#361,10.);
#100=VECTOR('',#362,10.);
#101=VECTOR('',#365,10.);
#102=VECTOR('',#366,10.);
#103=VECTOR('',#367,10.);
#104=VECTOR('',#370,10.);
#105=VECTOR('',#371,10.);
#106=VECTOR('',#372,10.);
#107=VECTOR('',#375,10.);
#108=VECTOR('',#376,10.);
#109=VECTOR('',#377,10.);
#110=VECTOR('',#380,10.);
#111=VECTOR('',#381,10.);
#112=VECTOR('',#382,10.);
#113=VECTOR('',#385,10.);
#114=VECTOR('',#386,10.);
#115=VECTOR('',#387,10.);
#116=VECTOR('',#390,10.);
#117=VECTOR('',#391,10.);
#118=VECTOR('',#392,10.);
#119=VECTOR('',#395,10.);
#120=VECTOR('',#396,10.);
#121=VECTOR('',#397,10.);
#122=VECTOR('',#400,10.);
#123=VECTOR('',#401,10.);
#124=VERTEX_POINT('',#408);
#125=VERTEX_POINT('',#409);
#126=VERTEX_POINT('',#411);
#127=VERTEX_POINT('',#413);
#128=VERTEX_POINT('',#417);
#129=VERTEX_POINT('',#419);
#130=VERTEX_POINT('',#423);
#131=VERTEX_POINT('',#425);
#132=VERTEX_POINT('',#429);
#133=VERTEX_POINT('',#431);
#134=VERTEX_POINT('',#435);
#135=VERTEX_POINT('',#437);
#136=VERTEX_POINT('',#441);
#137=VERTEX_POINT('',#443);
#138=VERTEX_POINT('',#447);
#139=VERTEX_POINT('',#449);
#140=VERTEX_POINT('',#453);
#141=VERTEX_POINT('',#455);
#142=VERTEX_POINT('',#459);
#143=VERTEX_POINT('',#461);
#144=VERTEX_POINT('',#465);
#145=VERTEX_POINT('',#467);
#146=VERTEX_POINT('',#471);
#147=VERTEX_POINT('',#473);
#148=VERTEX_POINT('',#477);
#149=VERTEX_POINT('',#479);
#150=EDGE_CURVE('',#124,#125,#46,.T.);
#151=EDGE_CURVE('',#126,#125,#47,.T.);
#152=EDGE_CURVE('',#126,#127,#48,.T.);
#153=EDGE_CURVE('',#127,#124,#49,.T.);
#154=EDGE_CURVE('',#125,#128,#50,.T.);
#155=EDGE_CURVE('',#129,#128,#51,.T.);
#156=EDGE_CURVE('',#129,#126,#52,.T.);
#157=EDGE_CURVE('',#128,#130,#53,.T.);
#158=EDGE_CURVE('',#131,#130,#54,.T.);
#159=EDGE_CURVE('',#131,#129,#55,.T.);
#160=EDGE_CURVE('',#130,#132,#56,.T.);
#161=EDGE_CURVE('',#133,#132,#57,.T.);
#162=EDGE_CURVE('',#133,#131,#58,.T.);
#163=EDGE_CURVE('',#132,#134,#59,.T.);
#164=EDGE_CURVE('',#135,#134,#60,.T.);
#165=EDGE_CURVE('',#135,#133,#61,.T.);
#166=EDGE_CURVE('',#134,#136,#62,.T.);
#167=EDGE_CURVE('',#137,#136,#63,.T.);
#168=EDGE_CURVE('',#137,#135,#64,.T.);
#169=EDGE_CURVE('',#136,#138,#65,.T.);
#170=EDGE_CURVE('',#139,#138,#66,.T.);
#171=EDGE_CURVE('',#139,#137,#67,.T.);
#172=EDGE_CURVE('',#138,#140,#68,.T.);
#173=EDGE_CURVE('',#141,#140,#69,.T.);
#174=EDGE_CURVE('',#141,#139,#70,.T.);
#175=EDGE_CURVE('',#140,#142,#71,.T.);
#176=EDGE_CURVE('',#143,#142,#72,.T.);
#177=EDGE_CURVE('',#143,#141,#73,.T.);
#178=EDGE_CURVE('',#142,#144,#74,.T.);
#179=EDGE_CURVE('',#145,#144,#75,.T.);
#180=EDGE_CURVE('',#145,#143,#76,.T.);
#181=EDGE_CURVE('',#144,#146,#77,.T.);
#182=EDGE_CURVE('',#147,#146,#78,.T.);
#183=EDGE_CURVE('',#147,#145,#79,.T.);
#184=EDGE_CURVE('',#146,#148,#80,.T.);
#185=EDGE_CURVE('',#149,#148,#81,.T.);
#186=EDGE_CURVE('',#149,#147,#82,.T.);
#187=EDGE_CURVE('',#148,#124,#83,.T.);
#188=EDGE_CURVE('',#127,#149,#84,.T.);
#189=ORIENTED_EDGE('',*,*,#150,.T.);
#190=ORIENTED_EDGE('',*,*,#151,.F.);
#191=ORIENTED_EDGE('',*,*,#152,.T.);
#192=ORIENTED_EDGE('',*,*,#153,.T.);
#193=ORIENTED_EDGE('',*,*,#154,.T.);
#194=ORIENTED_EDGE('',*,*,#155,.F.);
#195=ORIENTED_EDGE('',*,*,#156,.T.);
#196=ORIENTED_EDGE('',*,*,#151,.T.);
#197=ORIENTED_EDGE('',*,*,#157,.T.);
#198=ORIENTED_EDGE('',*,*,#158,.F.);
#199=ORIENTED_EDGE('',*,*,#159,.T.);
#200=ORIENTED_EDGE('',*,*,#155,.T.);
#201=ORIENTED_EDGE('',*,*,#160,.T.);
#202=ORIENTED_EDGE('',*,*,#161,.F.);
#203=ORIENTED_EDGE('',*,*,#162,.T.);
#204=ORIENTED_EDGE('',*,*,#158,.T.);
#205=ORIENTED_EDGE('',*,*,#163,.T.);
#206=ORIENTED_EDGE('',*,*,#164,.F.);
#207=ORIENTED_EDGE('',*,*,#165,.T.);
#208=ORIENTED_EDGE('',*,*,#161,.T.);
#209=ORIENTED_EDGE('',*,*,#166,.T.);
#210=ORIENTED_EDGE('',*,*,#167,.F.);
#211=ORIENTED_EDGE('',*,*,#168,.T.);
#212=ORIENTED_EDGE('',*,*,#164,.T.);
#213=ORIENTED_EDGE('',*,*,#169,.T.);
#214=ORIENTED_EDGE('',*,*,#170,.F.);
#215=ORIENTED_EDGE('',*,*,#171,.T.);
#216=ORIENTED_EDGE('',*,*,#167,.T.);
#217=ORIENTED_EDGE('',*,*,#172,.T.);
#218=ORIENTED_EDGE('',*,*,#173,.F.);
#219=ORIENTED_EDGE('',*,*,#174,.T.);
#220=ORIENTED_EDGE('',*,*,#170,.T.);
#221=ORIENTED_EDGE('',*,*,#175,.T.);
#222=ORIENTED_EDGE('',*,*,#176,.F.);
#223=ORIENTED_EDGE('',*,*,#177,.T.);
#224=ORIENTED_EDGE('',*,*,#173,.T.);
#225=ORIENTED_EDGE('',*,*,#178,.T.);
#226=ORIENTED_EDGE('',*,*,#179,.F.);
#227=ORIENTED_EDGE('',*,*,#180,.T.);
#228=ORIENTED_EDGE('',*,*,#176,.T.);
#229=ORIENTED_EDGE('',*,*,#181,.T.);
#230=ORIENTED_EDGE('',*,*,#182,.F.);
#231=ORIENTED_EDGE('',*,*,#183,.T.);
#232=ORIENTED_EDGE('',*,*,#179,.T.);
#233=ORIENTED_EDGE('',*,*,#184,.T.);
#234=ORIENTED_EDGE('',*,*,#185,.F.);
#235=ORIENTED_EDGE('',*,*,#186,.T.);
#236=ORIENTED_EDGE('',*,*,#182,.T.);
#237=ORIENTED_EDGE('',*,*,#187,.T.);
#238=ORIENTED_EDGE('',*,*,#153,.F.);
#239=ORIENTED_EDGE('',*,*,#188,.T.);
#240=ORIENTED_EDGE('',*,*,#185,.T.);
#241=ORIENTED_EDGE('',*,*,#188,.F.);
#242=ORIENTED_EDGE('',*,*,#152,.F.);
#243=ORIENTED_EDGE('',*,*,#156,.F.);
#244=ORIENTED_EDGE('',*,*,#159,.F.);
#245=ORIENTED_EDGE('',*,*,#162,.F.);
#246=ORIENTED_EDGE('',*,*,#165,.F.);
#247=ORIENTED_EDGE('',*,*,#168,.F.);
#248=ORIENTED_EDGE('',*,*,#171,.F.);
#249=ORIENTED_EDGE('',*,*,#174,.F.);
#250=ORIENTED_EDGE('',*,*,#177,.F.);
#251=ORIENTED_EDGE('',*,*,#180,.F.);
#252=ORIENTED_EDGE('',*,*,#183,.F.);
#253=ORIENTED_EDGE('',*,*,#186,.F.);
#254=ORIENTED_EDGE('',*,*,#150,.F.);
#255=ORIENTED_EDGE('',*,*,#187,.F.);
#256=ORIENTED_EDGE('',*,*,#184,.F.);
#257=ORIENTED_EDGE('',*,*,#181,.F.);
#258=ORIENTED_EDGE('',*,*,#178,.F.);
#259=ORIENTED_EDGE('',*,*,#175,.F.);
#260=ORIENTED_EDGE('',*,*,#172,.F.);
#261=ORIENTED_EDGE('',*,*,#169,.F.);
#262=ORIENTED_EDGE('',*,*,#166,.F.);
#263=ORIENTED_EDGE('',*,*,#163,.F.);
#264=ORIENTED_EDGE('',*,*,#160,.F.);
#265=ORIENTED_EDGE('',*,*,#157,.F.);
#266=ORIENTED_EDGE('',*,*,#154,.F.);
#267=PLANE('',#320);
#268=PLANE('',#321);
#269=PLANE('',#322);
#270=PLANE('',#323);
#271=PLANE('',#324);
#272=PLANE('',#325);
#273=PLANE('',#326);
#274=PLANE('',#327);
#275=PLANE('',#328);
#276=PLANE('',#329);
#277=PLANE('',#330);
#278=PLANE('',#331);
#279=PLANE('',#332);
#280=PLANE('',#333);
#281=PLANE('',#334);
#282=ADVANCED_FACE('',(#16),#267,.T.);
#283=ADVANCED_FACE('',(#17),#268,.T.);
#284=ADVANCED_FACE('',(#18),#269,.T.);
#285=ADVANCED_FACE('',(#19),#270,.T.);
#286=ADVANCED_FACE('',(#20),#271,.T.);
#287=ADVANCED_FACE('',(#21),#272,.T.);
#288=ADVANCED_FACE('',(#22),#273,.T.);
#289=ADVANCED_FACE('',(#23),#274,.T.);
#290=ADVANCED_FACE('',(#24),#275,.T.);
#291=ADVANCED_FACE('',(#25),#276,.T.);
#292=ADVANCED_FACE('',(#26),#277,.T.);
#293=ADVANCED_FACE('',(#27),#278,.T.);
#294=ADVANCED_FACE('',(#28),#279,.T.);
#295=ADVANCED_FACE('',(#29),#280,.F.);
#296=ADVANCED_FACE('',(#30),#281,.T.);
#297=CLOSED_SHELL('',(#282,#283,#284,#285,#286,#287,#288,#289,#290,#291,
#292,#293,#294,#295,#296));
#298=DERIVED_UNIT_ELEMENT(#301,1.);
#299=DERIVED_UNIT_ELEMENT(#492,-3.);
#300=DIMENSIONAL_EXPONENTS(0.,1.,0.,0.,0.,0.,0.);
#301=(
CONVERSION_BASED_UNIT('gram',#303)
MASS_UNIT()
NAMED_UNIT(#300)
);
#302=(
MASS_UNIT()
NAMED_UNIT(*)
SI_UNIT(.KILO.,.GRAM.)
);
#303=MASS_MEASURE_WITH_UNIT(MASS_MEASURE(0.001),#302);
#304=DERIVED_UNIT((#298,#299));
#305=MEASURE_REPRESENTATION_ITEM('density measure',
POSITIVE_RATIO_MEASURE(8.03),#304);
#306=PROPERTY_DEFINITION_REPRESENTATION(#311,#308);
#307=PROPERTY_DEFINITION_REPRESENTATION(#312,#309);
#308=REPRESENTATION('material name',(#310),#489);
#309=REPRESENTATION('density',(#305),#489);
#310=DESCRIPTIVE_REPRESENTATION_ITEM('1.4301','1.4301');
#311=PROPERTY_DEFINITION('material property','material name',#499);
#312=PROPERTY_DEFINITION('material property','density of part',#499);
#313=DATE_TIME_ROLE('creation_date');
#314=APPLIED_DATE_AND_TIME_ASSIGNMENT(#315,#313,(#499));
#315=DATE_AND_TIME(#316,#317);
#316=CALENDAR_DATE(2011,20,10);
#317=LOCAL_TIME(0,0,0.,#318);
#318=COORDINATED_UNIVERSAL_TIME_OFFSET(0,0,.BEHIND.);
#319=AXIS2_PLACEMENT_3D('',#406,#335,#336);
#320=AXIS2_PLACEMENT_3D('',#407,#337,#338);
#321=AXIS2_PLACEMENT_3D('',#416,#343,#344);
#322=AXIS2_PLACEMENT_3D('',#422,#348,#349);
#323=AXIS2_PLACEMENT_3D('',#428,#353,#354);
#324=AXIS2_PLACEMENT_3D('',#434,#358,#359);
#325=AXIS2_PLACEMENT_3D('',#440,#363,#364);
#326=AXIS2_PLACEMENT_3D('',#446,#368,#369);
#327=AXIS2_PLACEMENT_3D('',#452,#373,#374);
#328=AXIS2_PLACEMENT_3D('',#458,#378,#379);
#329=AXIS2_PLACEMENT_3D('',#464,#383,#384);
#330=AXIS2_PLACEMENT_3D('',#470,#388,#389);
#331=AXIS2_PLACEMENT_3D('',#476,#393,#394);
#332=AXIS2_PLACEMENT_3D('',#482,#398,#399);
#333=AXIS2_PLACEMENT_3D('',#485,#402,#403);
#334=AXIS2_PLACEMENT_3D('',#486,#404,#405);
#335=DIRECTION('axis',(0.,0.,1.));
#336=DIRECTION('refdir',(1.,0.,0.));
#337=DIRECTION('center_axis',(-1.,0.,0.));
#338=DIRECTION('ref_axis',(0.,0.,1.));
#339=DIRECTION('',(0.,1.,0.));
#340=DIRECTION('',(0.,0.,1.));
#341=DIRECTION('',(0.,-1.,0.));
#342=DIRECTION('',(0.,0.,1.));
#343=DIRECTION('center_axis',(0.,-1.,0.));
#344=DIRECTION('ref_axis',(0.,0.,-1.));
#345=DIRECTION('',(-1.,0.,0.));
#346=DIRECTION('',(0.,0.,1.));
#347=DIRECTION('',(1.,0.,0.));
#348=DIRECTION('center_axis',(1.,0.,0.));
#349=DIRECTION('ref_axis',(0.,0.,-1.));
#350=DIRECTION('',(0.,-1.,0.));
#351=DIRECTION('',(0.,0.,1.));
#352=DIRECTION('',(0.,1.,0.));
#353=DIRECTION('center_axis',(0.,-1.,0.));
#354=DIRECTION('ref_axis',(0.,0.,-1.));
#355=DIRECTION('',(-1.,0.,0.));
#356=DIRECTION('',(0.,0.,1.));
#357=DIRECTION('',(1.,0.,0.));
#358=DIRECTION('center_axis',(-1.,0.,0.));
#359=DIRECTION('ref_axis',(0.,0.,1.));
#360=DIRECTION('',(0.,1.,0.));
#361=DIRECTION('',(0.,0.,1.));
#362=DIRECTION('',(0.,-1.,0.));
#363=DIRECTION('center_axis',(0.,-1.,0.));
#364=DIRECTION('ref_axis',(0.,0.,-1.));
#365=DIRECTION('',(-1.,0.,0.));
#366=DIRECTION('',(0.,0.,1.));
#367=DIRECTION('',(1.,0.,0.));
#368=DIRECTION('center_axis',(1.,0.,0.));
#369=DIRECTION('ref_axis',(0.,0.,-1.));
#370=DIRECTION('',(0.,-1.,0.));
#371=DIRECTION('',(0.,0.,1.));
#372=DIRECTION('',(0.,1.,0.));
#373=DIRECTION('center_axis',(0.,-1.,0.));
#374=DIRECTION('ref_axis',(0.,0.,-1.));
#375=DIRECTION('',(-1.,0.,0.));
#376=DIRECTION('',(0.,0.,1.));
#377=DIRECTION('',(1.,0.,0.));
#378=DIRECTION('center_axis',(-1.,0.,0.));
#379=DIRECTION('ref_axis',(0.,0.,1.));
#380=DIRECTION('',(0.,1.,0.));
#381=DIRECTION('',(0.,0.,1.));
#382=DIRECTION('',(0.,-1.,0.));
#383=DIRECTION('center_axis',(0.707106781186548,0.707106781186548,0.));
#384=DIRECTION('ref_axis',(0.,0.,-1.));
#385=DIRECTION('',(0.707106781186548,-0.707106781186548,0.));
#386=DIRECTION('',(0.,0.,1.));
#387=DIRECTION('',(-0.707106781186548,0.707106781186548,0.));
#388=DIRECTION('center_axis',(-0.707106781186548,0.707106781186548,0.));
#389=DIRECTION('ref_axis',(0.,0.,1.));
#390=DIRECTION('',(0.707106781186548,0.707106781186548,0.));
#391=DIRECTION('',(0.,0.,1.));
#392=DIRECTION('',(-0.707106781186548,-0.707106781186548,0.));
#393=DIRECTION('center_axis',(1.,1.11022302462516E-16,0.));
#394=DIRECTION('ref_axis',(0.,0.,-1.));
#395=DIRECTION('',(1.11022302462516E-16,-1.,0.));
#396=DIRECTION('',(0.,0.,1.));
#397=DIRECTION('',(-1.11022302462516E-16,1.,0.));
#398=DIRECTION('center_axis',(-2.77555756156289E-16,-1.,0.));
#399=DIRECTION('ref_axis',(0.,0.,-1.));
#400=DIRECTION('',(-1.,2.77555756156289E-16,0.));
#401=DIRECTION('',(1.,-2.77555756156289E-16,0.));
#402=DIRECTION('center_axis',(0.,0.,1.));
#403=DIRECTION('ref_axis',(1.,0.,0.));
#404=DIRECTION('center_axis',(0.,0.,1.));
#405=DIRECTION('ref_axis',(1.,0.,0.));
#406=CARTESIAN_POINT('',(0.,0.,0.));
#407=CARTESIAN_POINT('Origin',(11.,-1.,0.));
#408=CARTESIAN_POINT('',(11.,-1.,50.));
#409=CARTESIAN_POINT('',(11.,0.,50.));
#410=CARTESIAN_POINT('',(11.,0.,50.));
#411=CARTESIAN_POINT('',(11.,0.,0.));
#412=CARTESIAN_POINT('',(11.,0.,0.));
#413=CARTESIAN_POINT('',(11.,-1.,0.));
#414=CARTESIAN_POINT('',(11.,0.,0.));
#415=CARTESIAN_POINT('',(11.,-1.,0.));
#416=CARTESIAN_POINT('Origin',(11.,0.,0.));
#417=CARTESIAN_POINT('',(5.,0.,50.));
#418=CARTESIAN_POINT('',(5.,0.,50.));
#419=CARTESIAN_POINT('',(5.,0.,0.));
#420=CARTESIAN_POINT('',(5.,0.,0.));
#421=CARTESIAN_POINT('',(5.,0.,0.));
#422=CARTESIAN_POINT('Origin',(5.,0.,0.));
#423=CARTESIAN_POINT('',(5.,-1.,50.));
#424=CARTESIAN_POINT('',(5.,-1.,50.));
#425=CARTESIAN_POINT('',(5.,-1.,0.));
#426=CARTESIAN_POINT('',(5.,-1.,0.));
#427=CARTESIAN_POINT('',(5.,-1.,0.));
#428=CARTESIAN_POINT('Origin',(5.,-1.,0.));
#429=CARTESIAN_POINT('',(-5.,-1.,50.));
#430=CARTESIAN_POINT('',(-5.,-1.,50.));
#431=CARTESIAN_POINT('',(-5.,-1.,0.));
#432=CARTESIAN_POINT('',(-5.,-1.,0.));
#433=CARTESIAN_POINT('',(-5.,-1.,0.));
#434=CARTESIAN_POINT('Origin',(-5.,-1.,0.));
#435=CARTESIAN_POINT('',(-5.,0.,50.));
#436=CARTESIAN_POINT('',(-5.,0.,50.));
#437=CARTESIAN_POINT('',(-5.,0.,0.));
#438=CARTESIAN_POINT('',(-5.,0.,0.));
#439=CARTESIAN_POINT('',(-5.,0.,0.));
#440=CARTESIAN_POINT('Origin',(-5.,0.,0.));
#441=CARTESIAN_POINT('',(-11.,0.,50.));
#442=CARTESIAN_POINT('',(-11.,0.,50.));
#443=CARTESIAN_POINT('',(-11.,0.,0.));
#444=CARTESIAN_POINT('',(-11.,0.,0.));
#445=CARTESIAN_POINT('',(-11.,0.,0.));
#446=CARTESIAN_POINT('Origin',(-11.,0.,0.));
#447=CARTESIAN_POINT('',(-11.,-1.,50.));
#448=CARTESIAN_POINT('',(-11.,-1.,50.));
#449=CARTESIAN_POINT('',(-11.,-1.,0.));
#450=CARTESIAN_POINT('',(-11.,-1.,0.));
#451=CARTESIAN_POINT('',(-11.,-1.,0.));
#452=CARTESIAN_POINT('Origin',(-11.,-1.,0.));
#453=CARTESIAN_POINT('',(-15.,-1.,50.));
#454=CARTESIAN_POINT('',(-15.,-1.,50.));
#455=CARTESIAN_POINT('',(-15.,-1.,0.));
#456=CARTESIAN_POINT('',(-15.,-1.,0.));
#457=CARTESIAN_POINT('',(-15.,-1.,0.));
#458=CARTESIAN_POINT('Origin',(-15.,-1.,0.));
#459=CARTESIAN_POINT('',(-15.,19.,50.));
#460=CARTESIAN_POINT('',(-15.,19.,50.));
#461=CARTESIAN_POINT('',(-15.,19.,0.));
#462=CARTESIAN_POINT('',(-15.,19.,0.));
#463=CARTESIAN_POINT('',(-15.,19.,0.));
#464=CARTESIAN_POINT('Origin',(-15.,19.,0.));
#465=CARTESIAN_POINT('',(1.73472347597681E-17,4.,50.));
#466=CARTESIAN_POINT('',(0.,4.,50.));
#467=CARTESIAN_POINT('',(1.73472347597681E-17,4.,0.));
#468=CARTESIAN_POINT('',(1.73472347597681E-17,4.,0.));
#469=CARTESIAN_POINT('',(0.,4.,0.));
#470=CARTESIAN_POINT('Origin',(1.73472347597681E-17,4.,0.));
#471=CARTESIAN_POINT('',(15.,19.,50.));
#472=CARTESIAN_POINT('',(15.,19.,50.));
#473=CARTESIAN_POINT('',(15.,19.,0.));
#474=CARTESIAN_POINT('',(15.,19.,0.));
#475=CARTESIAN_POINT('',(15.,19.,0.));
#476=CARTESIAN_POINT('Origin',(15.,19.,0.));
#477=CARTESIAN_POINT('',(15.,-1.,50.));
#478=CARTESIAN_POINT('',(15.,-1.,50.));
#479=CARTESIAN_POINT('',(15.,-1.,0.));
#480=CARTESIAN_POINT('',(15.,-1.,0.));
#481=CARTESIAN_POINT('',(15.,-1.,0.));
#482=CARTESIAN_POINT('Origin',(15.,-1.,0.));
#483=CARTESIAN_POINT('',(11.,-1.,50.));
#484=CARTESIAN_POINT('',(11.,-1.,0.));
#485=CARTESIAN_POINT('Origin',(0.,7.11096134689324,0.));
#486=CARTESIAN_POINT('Origin',(-8.67361737988404E-17,7.11096134689324,50.));
#487=UNCERTAINTY_MEASURE_WITH_UNIT(LENGTH_MEASURE(0.01),#491,
'DISTANCE_ACCURACY_VALUE',
'Maximum model space distance between geometric entities at asserted c
onnectivities');
#488=UNCERTAINTY_MEASURE_WITH_UNIT(LENGTH_MEASURE(0.01),#491,
'DISTANCE_ACCURACY_VALUE',
'Maximum model space distance between geometric entities at asserted c
onnectivities');
#489=(
GEOMETRIC_REPRESENTATION_CONTEXT(3)
GLOBAL_UNCERTAINTY_ASSIGNED_CONTEXT((#487))
GLOBAL_UNIT_ASSIGNED_CONTEXT((#491,#493,#494))
REPRESENTATION_CONTEXT('','3D')
);
#490=(
GEOMETRIC_REPRESENTATION_CONTEXT(3)
GLOBAL_UNCERTAINTY_ASSIGNED_CONTEXT((#488))
GLOBAL_UNIT_ASSIGNED_CONTEXT((#491,#493,#494))
REPRESENTATION_CONTEXT('','3D')
);
#491=(
LENGTH_UNIT()
NAMED_UNIT(*)
SI_UNIT(.MILLI.,.METRE.)
);
#492=(
LENGTH_UNIT()
NAMED_UNIT(*)
SI_UNIT(.CENTI.,.METRE.)
);
#493=(
NAMED_UNIT(*)
PLANE_ANGLE_UNIT()
SI_UNIT($,.RADIAN.)
);
#494=(
NAMED_UNIT(*)
SI_UNIT($,.STERADIAN.)
SOLID_ANGLE_UNIT()
);
#495=SHAPE_DEFINITION_REPRESENTATION(#496,#497);
#496=PRODUCT_DEFINITION_SHAPE('',$,#499);
#497=SHAPE_REPRESENTATION('',(#319),#489);
#498=PRODUCT_DEFINITION_CONTEXT('part definition',#503,'design');
#499=PRODUCT_DEFINITION('WKZ-0057','E_3_01_10_18_00_WKZ-0057',#500,#498);
#500=PRODUCT_DEFINITION_FORMATION('',$,#505);
#501=PRODUCT_RELATED_PRODUCT_CATEGORY('E_3_01_10_18_00_WKZ-0057',
'E_3_01_10_18_00_WKZ-0057',(#505));
#502=APPLICATION_PROTOCOL_DEFINITION('international standard',
'automotive_design',2009,#503);
#503=APPLICATION_CONTEXT(
'Core Data for Automotive Mechanical Design Process');
#504=PRODUCT_CONTEXT('part definition',#503,'mechanical');
#505=PRODUCT('WKZ-0057','E_3_01_10_18_00_WKZ-0057',$,(#504));
#506=PRESENTATION_STYLE_ASSIGNMENT((#508));
#507=PRESENTATION_STYLE_ASSIGNMENT((#509));
#508=SURFACE_STYLE_USAGE(.BOTH.,#512);
#509=SURFACE_STYLE_USAGE(.BOTH.,#513);
#510=SURFACE_STYLE_RENDERING_WITH_PROPERTIES($,#520,(#511));
#511=SURFACE_STYLE_TRANSPARENT(0.);
#512=SURFACE_SIDE_STYLE('',(#514,#510));
#513=SURFACE_SIDE_STYLE('',(#515));
#514=SURFACE_STYLE_FILL_AREA(#516);
#515=SURFACE_STYLE_FILL_AREA(#517);
#516=FILL_AREA_STYLE('',(#518));
#517=FILL_AREA_STYLE('',(#519));
#518=FILL_AREA_STYLE_COLOUR('',#520);
#519=FILL_AREA_STYLE_COLOUR('',#521);
#520=COLOUR_RGB('',1.,1.,1.);
#521=COLOUR_RGB('',0.325490196078431,0.325490196078431,0.325490196078431);
ENDSEC;
END-ISO-10303-21;
