ISO-10303-21;
HEADER;
/* Generated by software containing ST-Developer
 * from STEP Tools, Inc. (www.steptools.com) 
 */

FILE_DESCRIPTION(
/* description */ (''),
/* implementation_level */ '2;1');

FILE_NAME(
/* name */ 'E_3_01_10_18_00_WKZ-0051.stp',
/* time_stamp */ '2025-11-24T10:31:44+01:00',
/* author */ ('d.fischer'),
/* organization */ (''),
/* preprocessor_version */ 'ST-DEVELOPER v20',
/* originating_system */ 'Autodesk Inventor 2025',
/* authorisation */ '');

FILE_SCHEMA (('AUTOMOTIVE_DESIGN { 1 0 10303 214 3 1 1 }'));
ENDSEC;

DATA;
#10=MECHANICAL_DESIGN_GEOMETRIC_PRESENTATION_REPRESENTATION('',(#13),#522);
#11=SHAPE_REPRESENTATION_RELATIONSHIP('SRR','None',#529,#12);
#12=ADVANCED_BREP_SHAPE_REPRESENTATION('',(#14),#521);
#13=STYLED_ITEM('',(#538),#14);
#14=MANIFOLD_SOLID_BREP('Volumenk\X\F6rper1',#317);
#15=FACE_OUTER_BOUND('',#31,.T.);
#16=FACE_OUTER_BOUND('',#32,.T.);
#17=FACE_OUTER_BOUND('',#33,.T.);
#18=FACE_OUTER_BOUND('',#34,.T.);
#19=FACE_OUTER_BOUND('',#35,.T.);
#20=FACE_OUTER_BOUND('',#36,.T.);
#21=FACE_OUTER_BOUND('',#37,.T.);
#22=FACE_OUTER_BOUND('',#38,.T.);
#23=FACE_OUTER_BOUND('',#39,.T.);
#24=FACE_OUTER_BOUND('',#40,.T.);
#25=FACE_OUTER_BOUND('',#41,.T.);
#26=FACE_OUTER_BOUND('',#42,.T.);
#27=FACE_OUTER_BOUND('',#43,.T.);
#28=FACE_OUTER_BOUND('',#44,.T.);
#29=FACE_OUTER_BOUND('',#45,.T.);
#30=FACE_OUTER_BOUND('',#46,.T.);
#31=EDGE_LOOP('',(#201,#202,#203,#204,#205,#206,#207,#208,#209,#210,#211,
#212,#213,#214));
#32=EDGE_LOOP('',(#215,#216,#217,#218));
#33=EDGE_LOOP('',(#219,#220,#221,#222));
#34=EDGE_LOOP('',(#223,#224,#225,#226));
#35=EDGE_LOOP('',(#227,#228,#229,#230));
#36=EDGE_LOOP('',(#231,#232,#233,#234));
#37=EDGE_LOOP('',(#235,#236,#237,#238));
#38=EDGE_LOOP('',(#239,#240,#241,#242));
#39=EDGE_LOOP('',(#243,#244,#245,#246));
#40=EDGE_LOOP('',(#247,#248,#249,#250));
#41=EDGE_LOOP('',(#251,#252,#253,#254));
#42=EDGE_LOOP('',(#255,#256,#257,#258));
#43=EDGE_LOOP('',(#259,#260,#261,#262));
#44=EDGE_LOOP('',(#263,#264,#265,#266));
#45=EDGE_LOOP('',(#267,#268,#269,#270));
#46=EDGE_LOOP('',(#271,#272,#273,#274,#275,#276,#277,#278,#279,#280,#281,
#282,#283,#284));
#47=LINE('',#436,#89);
#48=LINE('',#438,#90);
#49=LINE('',#440,#91);
#50=LINE('',#442,#92);
#51=LINE('',#444,#93);
#52=LINE('',#446,#94);
#53=LINE('',#448,#95);
#54=LINE('',#450,#96);
#55=LINE('',#452,#97);
#56=LINE('',#454,#98);
#57=LINE('',#456,#99);
#58=LINE('',#458,#100);
#59=LINE('',#460,#101);
#60=LINE('',#461,#102);
#61=LINE('',#465,#103);
#62=LINE('',#466,#104);
#63=LINE('',#467,#105);
#64=LINE('',#470,#106);
#65=LINE('',#471,#107);
#66=LINE('',#474,#108);
#67=LINE('',#475,#109);
#68=LINE('',#478,#110);
#69=LINE('',#479,#111);
#70=LINE('',#482,#112);
#71=LINE('',#483,#113);
#72=LINE('',#486,#114);
#73=LINE('',#487,#115);
#74=LINE('',#490,#116);
#75=LINE('',#491,#117);
#76=LINE('',#494,#118);
#77=LINE('',#495,#119);
#78=LINE('',#498,#120);
#79=LINE('',#499,#121);
#80=LINE('',#502,#122);
#81=LINE('',#503,#123);
#82=LINE('',#506,#124);
#83=LINE('',#507,#125);
#84=LINE('',#510,#126);
#85=LINE('',#511,#127);
#86=LINE('',#514,#128);
#87=LINE('',#515,#129);
#88=LINE('',#517,#130);
#89=VECTOR('',#360,10.);
#90=VECTOR('',#361,10.);
#91=VECTOR('',#362,10.);
#92=VECTOR('',#363,10.);
#93=VECTOR('',#364,10.);
#94=VECTOR('',#365,10.);
#95=VECTOR('',#366,10.);
#96=VECTOR('',#367,10.);
#97=VECTOR('',#368,10.);
#98=VECTOR('',#369,10.);
#99=VECTOR('',#370,10.);
#100=VECTOR('',#371,10.);
#101=VECTOR('',#372,10.);
#102=VECTOR('',#373,10.);
#103=VECTOR('',#376,10.);
#104=VECTOR('',#377,10.);
#105=VECTOR('',#378,10.);
#106=VECTOR('',#381,10.);
#107=VECTOR('',#382,10.);
#108=VECTOR('',#385,10.);
#109=VECTOR('',#386,10.);
#110=VECTOR('',#389,10.);
#111=VECTOR('',#390,10.);
#112=VECTOR('',#393,10.);
#113=VECTOR('',#394,10.);
#114=VECTOR('',#397,10.);
#115=VECTOR('',#398,10.);
#116=VECTOR('',#401,10.);
#117=VECTOR('',#402,10.);
#118=VECTOR('',#405,10.);
#119=VECTOR('',#406,10.);
#120=VECTOR('',#409,10.);
#121=VECTOR('',#410,10.);
#122=VECTOR('',#413,10.);
#123=VECTOR('',#414,10.);
#124=VECTOR('',#417,10.);
#125=VECTOR('',#418,10.);
#126=VECTOR('',#421,10.);
#127=VECTOR('',#422,10.);
#128=VECTOR('',#425,10.);
#129=VECTOR('',#426,10.);
#130=VECTOR('',#429,10.);
#131=VERTEX_POINT('',#434);
#132=VERTEX_POINT('',#435);
#133=VERTEX_POINT('',#437);
#134=VERTEX_POINT('',#439);
#135=VERTEX_POINT('',#441);
#136=VERTEX_POINT('',#443);
#137=VERTEX_POINT('',#445);
#138=VERTEX_POINT('',#447);
#139=VERTEX_POINT('',#449);
#140=VERTEX_POINT('',#451);
#141=VERTEX_POINT('',#453);
#142=VERTEX_POINT('',#455);
#143=VERTEX_POINT('',#457);
#144=VERTEX_POINT('',#459);
#145=VERTEX_POINT('',#463);
#146=VERTEX_POINT('',#464);
#147=VERTEX_POINT('',#469);
#148=VERTEX_POINT('',#473);
#149=VERTEX_POINT('',#477);
#150=VERTEX_POINT('',#481);
#151=VERTEX_POINT('',#485);
#152=VERTEX_POINT('',#489);
#153=VERTEX_POINT('',#493);
#154=VERTEX_POINT('',#497);
#155=VERTEX_POINT('',#501);
#156=VERTEX_POINT('',#505);
#157=VERTEX_POINT('',#509);
#158=VERTEX_POINT('',#513);
#159=EDGE_CURVE('',#131,#132,#47,.T.);
#160=EDGE_CURVE('',#133,#131,#48,.T.);
#161=EDGE_CURVE('',#134,#133,#49,.T.);
#162=EDGE_CURVE('',#135,#134,#50,.T.);
#163=EDGE_CURVE('',#136,#135,#51,.T.);
#164=EDGE_CURVE('',#137,#136,#52,.T.);
#165=EDGE_CURVE('',#138,#137,#53,.T.);
#166=EDGE_CURVE('',#139,#138,#54,.T.);
#167=EDGE_CURVE('',#140,#139,#55,.T.);
#168=EDGE_CURVE('',#141,#140,#56,.T.);
#169=EDGE_CURVE('',#142,#141,#57,.T.);
#170=EDGE_CURVE('',#143,#142,#58,.T.);
#171=EDGE_CURVE('',#144,#143,#59,.T.);
#172=EDGE_CURVE('',#132,#144,#60,.T.);
#173=EDGE_CURVE('',#145,#146,#61,.T.);
#174=EDGE_CURVE('',#146,#134,#62,.T.);
#175=EDGE_CURVE('',#145,#133,#63,.T.);
#176=EDGE_CURVE('',#146,#147,#64,.T.);
#177=EDGE_CURVE('',#147,#135,#65,.T.);
#178=EDGE_CURVE('',#147,#148,#66,.T.);
#179=EDGE_CURVE('',#148,#136,#67,.T.);
#180=EDGE_CURVE('',#148,#149,#68,.T.);
#181=EDGE_CURVE('',#149,#137,#69,.T.);
#182=EDGE_CURVE('',#149,#150,#70,.T.);
#183=EDGE_CURVE('',#150,#138,#71,.T.);
#184=EDGE_CURVE('',#150,#151,#72,.T.);
#185=EDGE_CURVE('',#151,#139,#73,.T.);
#186=EDGE_CURVE('',#151,#152,#74,.T.);
#187=EDGE_CURVE('',#152,#140,#75,.T.);
#188=EDGE_CURVE('',#152,#153,#76,.T.);
#189=EDGE_CURVE('',#153,#141,#77,.T.);
#190=EDGE_CURVE('',#153,#154,#78,.T.);
#191=EDGE_CURVE('',#154,#142,#79,.T.);
#192=EDGE_CURVE('',#154,#155,#80,.T.);
#193=EDGE_CURVE('',#155,#143,#81,.T.);
#194=EDGE_CURVE('',#155,#156,#82,.T.);
#195=EDGE_CURVE('',#156,#144,#83,.T.);
#196=EDGE_CURVE('',#156,#157,#84,.T.);
#197=EDGE_CURVE('',#157,#132,#85,.T.);
#198=EDGE_CURVE('',#157,#158,#86,.T.);
#199=EDGE_CURVE('',#131,#158,#87,.T.);
#200=EDGE_CURVE('',#158,#145,#88,.T.);
#201=ORIENTED_EDGE('',*,*,#159,.F.);
#202=ORIENTED_EDGE('',*,*,#160,.F.);
#203=ORIENTED_EDGE('',*,*,#161,.F.);
#204=ORIENTED_EDGE('',*,*,#162,.F.);
#205=ORIENTED_EDGE('',*,*,#163,.F.);
#206=ORIENTED_EDGE('',*,*,#164,.F.);
#207=ORIENTED_EDGE('',*,*,#165,.F.);
#208=ORIENTED_EDGE('',*,*,#166,.F.);
#209=ORIENTED_EDGE('',*,*,#167,.F.);
#210=ORIENTED_EDGE('',*,*,#168,.F.);
#211=ORIENTED_EDGE('',*,*,#169,.F.);
#212=ORIENTED_EDGE('',*,*,#170,.F.);
#213=ORIENTED_EDGE('',*,*,#171,.F.);
#214=ORIENTED_EDGE('',*,*,#172,.F.);
#215=ORIENTED_EDGE('',*,*,#173,.T.);
#216=ORIENTED_EDGE('',*,*,#174,.T.);
#217=ORIENTED_EDGE('',*,*,#161,.T.);
#218=ORIENTED_EDGE('',*,*,#175,.F.);
#219=ORIENTED_EDGE('',*,*,#176,.T.);
#220=ORIENTED_EDGE('',*,*,#177,.T.);
#221=ORIENTED_EDGE('',*,*,#162,.T.);
#222=ORIENTED_EDGE('',*,*,#174,.F.);
#223=ORIENTED_EDGE('',*,*,#178,.T.);
#224=ORIENTED_EDGE('',*,*,#179,.T.);
#225=ORIENTED_EDGE('',*,*,#163,.T.);
#226=ORIENTED_EDGE('',*,*,#177,.F.);
#227=ORIENTED_EDGE('',*,*,#180,.T.);
#228=ORIENTED_EDGE('',*,*,#181,.T.);
#229=ORIENTED_EDGE('',*,*,#164,.T.);
#230=ORIENTED_EDGE('',*,*,#179,.F.);
#231=ORIENTED_EDGE('',*,*,#182,.T.);
#232=ORIENTED_EDGE('',*,*,#183,.T.);
#233=ORIENTED_EDGE('',*,*,#165,.T.);
#234=ORIENTED_EDGE('',*,*,#181,.F.);
#235=ORIENTED_EDGE('',*,*,#184,.T.);
#236=ORIENTED_EDGE('',*,*,#185,.T.);
#237=ORIENTED_EDGE('',*,*,#166,.T.);
#238=ORIENTED_EDGE('',*,*,#183,.F.);
#239=ORIENTED_EDGE('',*,*,#186,.T.);
#240=ORIENTED_EDGE('',*,*,#187,.T.);
#241=ORIENTED_EDGE('',*,*,#167,.T.);
#242=ORIENTED_EDGE('',*,*,#185,.F.);
#243=ORIENTED_EDGE('',*,*,#188,.T.);
#244=ORIENTED_EDGE('',*,*,#189,.T.);
#245=ORIENTED_EDGE('',*,*,#168,.T.);
#246=ORIENTED_EDGE('',*,*,#187,.F.);
#247=ORIENTED_EDGE('',*,*,#190,.T.);
#248=ORIENTED_EDGE('',*,*,#191,.T.);
#249=ORIENTED_EDGE('',*,*,#169,.T.);
#250=ORIENTED_EDGE('',*,*,#189,.F.);
#251=ORIENTED_EDGE('',*,*,#192,.T.);
#252=ORIENTED_EDGE('',*,*,#193,.T.);
#253=ORIENTED_EDGE('',*,*,#170,.T.);
#254=ORIENTED_EDGE('',*,*,#191,.F.);
#255=ORIENTED_EDGE('',*,*,#194,.T.);
#256=ORIENTED_EDGE('',*,*,#195,.T.);
#257=ORIENTED_EDGE('',*,*,#171,.T.);
#258=ORIENTED_EDGE('',*,*,#193,.F.);
#259=ORIENTED_EDGE('',*,*,#196,.T.);
#260=ORIENTED_EDGE('',*,*,#197,.T.);
#261=ORIENTED_EDGE('',*,*,#172,.T.);
#262=ORIENTED_EDGE('',*,*,#195,.F.);
#263=ORIENTED_EDGE('',*,*,#198,.T.);
#264=ORIENTED_EDGE('',*,*,#199,.F.);
#265=ORIENTED_EDGE('',*,*,#159,.T.);
#266=ORIENTED_EDGE('',*,*,#197,.F.);
#267=ORIENTED_EDGE('',*,*,#200,.T.);
#268=ORIENTED_EDGE('',*,*,#175,.T.);
#269=ORIENTED_EDGE('',*,*,#160,.T.);
#270=ORIENTED_EDGE('',*,*,#199,.T.);
#271=ORIENTED_EDGE('',*,*,#173,.F.);
#272=ORIENTED_EDGE('',*,*,#200,.F.);
#273=ORIENTED_EDGE('',*,*,#198,.F.);
#274=ORIENTED_EDGE('',*,*,#196,.F.);
#275=ORIENTED_EDGE('',*,*,#194,.F.);
#276=ORIENTED_EDGE('',*,*,#192,.F.);
#277=ORIENTED_EDGE('',*,*,#190,.F.);
#278=ORIENTED_EDGE('',*,*,#188,.F.);
#279=ORIENTED_EDGE('',*,*,#186,.F.);
#280=ORIENTED_EDGE('',*,*,#184,.F.);
#281=ORIENTED_EDGE('',*,*,#182,.F.);
#282=ORIENTED_EDGE('',*,*,#180,.F.);
#283=ORIENTED_EDGE('',*,*,#178,.F.);
#284=ORIENTED_EDGE('',*,*,#176,.F.);
#285=PLANE('',#340);
#286=PLANE('',#341);
#287=PLANE('',#342);
#288=PLANE('',#343);
#289=PLANE('',#344);
#290=PLANE('',#345);
#291=PLANE('',#346);
#292=PLANE('',#347);
#293=PLANE('',#348);
#294=PLANE('',#349);
#295=PLANE('',#350);
#296=PLANE('',#351);
#297=PLANE('',#352);
#298=PLANE('',#353);
#299=PLANE('',#354);
#300=PLANE('',#355);
#301=ADVANCED_FACE('',(#15),#285,.F.);
#302=ADVANCED_FACE('',(#16),#286,.T.);
#303=ADVANCED_FACE('',(#17),#287,.T.);
#304=ADVANCED_FACE('',(#18),#288,.T.);
#305=ADVANCED_FACE('',(#19),#289,.T.);
#306=ADVANCED_FACE('',(#20),#290,.T.);
#307=ADVANCED_FACE('',(#21),#291,.T.);
#308=ADVANCED_FACE('',(#22),#292,.T.);
#309=ADVANCED_FACE('',(#23),#293,.T.);
#310=ADVANCED_FACE('',(#24),#294,.T.);
#311=ADVANCED_FACE('',(#25),#295,.T.);
#312=ADVANCED_FACE('',(#26),#296,.T.);
#313=ADVANCED_FACE('',(#27),#297,.T.);
#314=ADVANCED_FACE('',(#28),#298,.T.);
#315=ADVANCED_FACE('',(#29),#299,.T.);
#316=ADVANCED_FACE('',(#30),#300,.T.);
#317=CLOSED_SHELL('',(#301,#302,#303,#304,#305,#306,#307,#308,#309,#310,
#311,#312,#313,#314,#315,#316));
#318=DERIVED_UNIT_ELEMENT(#321,1.);
#319=DERIVED_UNIT_ELEMENT(#524,-3.);
#320=DIMENSIONAL_EXPONENTS(0.,1.,0.,0.,0.,0.,0.);
#321=(
CONVERSION_BASED_UNIT('gram',#323)
MASS_UNIT()
NAMED_UNIT(#320)
);
#322=(
MASS_UNIT()
NAMED_UNIT(*)
SI_UNIT(.KILO.,.GRAM.)
);
#323=MASS_MEASURE_WITH_UNIT(MASS_MEASURE(0.001),#322);
#324=DERIVED_UNIT((#318,#319));
#325=MEASURE_REPRESENTATION_ITEM('density measure',
POSITIVE_RATIO_MEASURE(8.03),#324);
#326=PROPERTY_DEFINITION_REPRESENTATION(#331,#328);
#327=PROPERTY_DEFINITION_REPRESENTATION(#332,#329);
#328=REPRESENTATION('material name',(#330),#521);
#329=REPRESENTATION('density',(#325),#521);
#330=DESCRIPTIVE_REPRESENTATION_ITEM('1.4301','1.4301');
#331=PROPERTY_DEFINITION('material property','material name',#531);
#332=PROPERTY_DEFINITION('material property','density of part',#531);
#333=DATE_TIME_ROLE('creation_date');
#334=APPLIED_DATE_AND_TIME_ASSIGNMENT(#335,#333,(#531));
#335=DATE_AND_TIME(#336,#337);
#336=CALENDAR_DATE(2011,21,10);
#337=LOCAL_TIME(0,0,0.,#338);
#338=COORDINATED_UNIVERSAL_TIME_OFFSET(0,0,.BEHIND.);
#339=AXIS2_PLACEMENT_3D('',#432,#356,#357);
#340=AXIS2_PLACEMENT_3D('',#433,#358,#359);
#341=AXIS2_PLACEMENT_3D('',#462,#374,#375);
#342=AXIS2_PLACEMENT_3D('',#468,#379,#380);
#343=AXIS2_PLACEMENT_3D('',#472,#383,#384);
#344=AXIS2_PLACEMENT_3D('',#476,#387,#388);
#345=AXIS2_PLACEMENT_3D('',#480,#391,#392);
#346=AXIS2_PLACEMENT_3D('',#484,#395,#396);
#347=AXIS2_PLACEMENT_3D('',#488,#399,#400);
#348=AXIS2_PLACEMENT_3D('',#492,#403,#404);
#349=AXIS2_PLACEMENT_3D('',#496,#407,#408);
#350=AXIS2_PLACEMENT_3D('',#500,#411,#412);
#351=AXIS2_PLACEMENT_3D('',#504,#415,#416);
#352=AXIS2_PLACEMENT_3D('',#508,#419,#420);
#353=AXIS2_PLACEMENT_3D('',#512,#423,#424);
#354=AXIS2_PLACEMENT_3D('',#516,#427,#428);
#355=AXIS2_PLACEMENT_3D('',#518,#430,#431);
#356=DIRECTION('axis',(0.,0.,1.));
#357=DIRECTION('refdir',(1.,0.,0.));
#358=DIRECTION('center_axis',(0.,0.,1.));
#359=DIRECTION('ref_axis',(1.,0.,0.));
#360=DIRECTION('',(0.6300609379061,0.776545693777826,0.));
#361=DIRECTION('',(1.,1.3982657740871E-16,0.));
#362=DIRECTION('',(0.,1.,0.));
#363=DIRECTION('',(1.,0.,0.));
#364=DIRECTION('',(0.,-1.,0.));
#365=DIRECTION('',(1.,-1.3982657740871E-16,0.));
#366=DIRECTION('',(0.6300609379061,-0.776545693777826,0.));
#367=DIRECTION('',(-0.078718800726722,-0.996896860468598,0.));
#368=DIRECTION('',(-1.,-7.24434625493516E-16,0.));
#369=DIRECTION('',(-0.410563170324109,0.911832157347731,0.));
#370=DIRECTION('',(-1.,0.,0.));
#371=DIRECTION('',(-0.410563170324109,-0.911832157347731,0.));
#372=DIRECTION('',(-1.,8.89984887305566E-16,0.));
#373=DIRECTION('',(-0.127661867742872,0.991817749147696,0.));
#374=DIRECTION('center_axis',(1.,0.,0.));
#375=DIRECTION('ref_axis',(0.,0.,-1.));
#376=DIRECTION('',(0.,-1.,0.));
#377=DIRECTION('',(0.,0.,-1.));
#378=DIRECTION('',(0.,0.,-1.));
#379=DIRECTION('center_axis',(0.,-1.,0.));
#380=DIRECTION('ref_axis',(0.,0.,-1.));
#381=DIRECTION('',(-1.,0.,0.));
#382=DIRECTION('',(0.,0.,-1.));
#383=DIRECTION('center_axis',(-1.,0.,0.));
#384=DIRECTION('ref_axis',(0.,0.,1.));
#385=DIRECTION('',(0.,1.,0.));
#386=DIRECTION('',(0.,0.,-1.));
#387=DIRECTION('center_axis',(-1.3982657740871E-16,-1.,0.));
#388=DIRECTION('ref_axis',(0.,0.,-1.));
#389=DIRECTION('',(-1.,1.3982657740871E-16,0.));
#390=DIRECTION('',(0.,0.,-1.));
#391=DIRECTION('center_axis',(-0.776545693777826,-0.6300609379061,0.));
#392=DIRECTION('ref_axis',(0.,0.,1.));
#393=DIRECTION('',(-0.6300609379061,0.776545693777826,0.));
#394=DIRECTION('',(0.,0.,-1.));
#395=DIRECTION('center_axis',(-0.996896860468598,0.078718800726722,0.));
#396=DIRECTION('ref_axis',(0.,0.,1.));
#397=DIRECTION('',(0.078718800726722,0.996896860468598,0.));
#398=DIRECTION('',(0.,0.,-1.));
#399=DIRECTION('center_axis',(-7.24434625493516E-16,1.,0.));
#400=DIRECTION('ref_axis',(0.,0.,1.));
#401=DIRECTION('',(1.,7.24434625493516E-16,0.));
#402=DIRECTION('',(0.,0.,-1.));
#403=DIRECTION('center_axis',(0.911832157347731,0.410563170324109,0.));
#404=DIRECTION('ref_axis',(0.,0.,-1.));
#405=DIRECTION('',(0.410563170324109,-0.911832157347731,0.));
#406=DIRECTION('',(0.,0.,-1.));
#407=DIRECTION('center_axis',(0.,1.,0.));
#408=DIRECTION('ref_axis',(0.,0.,1.));
#409=DIRECTION('',(1.,0.,0.));
#410=DIRECTION('',(0.,0.,-1.));
#411=DIRECTION('center_axis',(-0.911832157347731,0.410563170324109,0.));
#412=DIRECTION('ref_axis',(0.,0.,1.));
#413=DIRECTION('',(0.410563170324109,0.911832157347731,0.));
#414=DIRECTION('',(0.,0.,-1.));
#415=DIRECTION('center_axis',(8.89984887305566E-16,1.,0.));
#416=DIRECTION('ref_axis',(0.,0.,1.));
#417=DIRECTION('',(1.,-8.89984887305566E-16,0.));
#418=DIRECTION('',(0.,0.,-1.));
#419=DIRECTION('center_axis',(0.991817749147696,0.127661867742872,0.));
#420=DIRECTION('ref_axis',(0.,0.,-1.));
#421=DIRECTION('',(0.127661867742872,-0.991817749147696,0.));
#422=DIRECTION('',(0.,0.,-1.));
#423=DIRECTION('center_axis',(0.776545693777826,-0.6300609379061,0.));
#424=DIRECTION('ref_axis',(0.,0.,-1.));
#425=DIRECTION('',(-0.6300609379061,-0.776545693777826,0.));
#426=DIRECTION('',(0.,0.,1.));
#427=DIRECTION('center_axis',(1.3982657740871E-16,-1.,0.));
#428=DIRECTION('ref_axis',(0.,0.,-1.));
#429=DIRECTION('',(-1.,-1.3982657740871E-16,0.));
#430=DIRECTION('center_axis',(0.,0.,1.));
#431=DIRECTION('ref_axis',(1.,0.,0.));
#432=CARTESIAN_POINT('',(0.,0.,0.));
#433=CARTESIAN_POINT('Origin',(-0.0989828036375921,8.02992269202577,-8.));
#434=CARTESIAN_POINT('',(10.32,1.6,-8.));
#435=CARTESIAN_POINT('',(13.89,6.,-8.));
#436=CARTESIAN_POINT('',(13.89,6.,-8.));
#437=CARTESIAN_POINT('',(2.38,1.6,-8.));
#438=CARTESIAN_POINT('',(10.32,1.6,-8.));
#439=CARTESIAN_POINT('',(2.38,0.,-8.));
#440=CARTESIAN_POINT('',(2.38,1.6,-8.));
#441=CARTESIAN_POINT('',(-2.38,0.,-8.));
#442=CARTESIAN_POINT('',(2.38,0.,-8.));
#443=CARTESIAN_POINT('',(-2.38,1.6,-8.));
#444=CARTESIAN_POINT('',(-2.38,0.,-8.));
#445=CARTESIAN_POINT('',(-10.32,1.6,-8.));
#446=CARTESIAN_POINT('',(-2.38,1.6,-8.));
#447=CARTESIAN_POINT('',(-13.89,6.,-8.));
#448=CARTESIAN_POINT('',(-10.32,1.6,-8.));
#449=CARTESIAN_POINT('',(-12.985074433373,17.46,-8.));
#450=CARTESIAN_POINT('',(-13.89,6.,-8.));
#451=CARTESIAN_POINT('',(-9.92,17.46,-8.));
#452=CARTESIAN_POINT('',(-12.985074433373,17.46,-8.));
#453=CARTESIAN_POINT('',(-4.76,6.,-8.));
#454=CARTESIAN_POINT('',(-9.92,17.46,-8.));
#455=CARTESIAN_POINT('',(4.76,6.,-8.));
#456=CARTESIAN_POINT('',(-4.76,6.,-8.));
#457=CARTESIAN_POINT('',(9.92,17.46,-8.));
#458=CARTESIAN_POINT('',(4.76,6.,-8.));
#459=CARTESIAN_POINT('',(12.414925566627,17.46,-8.));
#460=CARTESIAN_POINT('',(9.92,17.46,-8.));
#461=CARTESIAN_POINT('',(12.414925566627,17.46,-8.));
#462=CARTESIAN_POINT('Origin',(2.38,1.6,0.));
#463=CARTESIAN_POINT('',(2.38,1.6,8.));
#464=CARTESIAN_POINT('',(2.38,0.,8.));
#465=CARTESIAN_POINT('',(2.38,1.6,8.));
#466=CARTESIAN_POINT('',(2.38,0.,0.));
#467=CARTESIAN_POINT('',(2.38,1.6,0.));
#468=CARTESIAN_POINT('Origin',(2.38,0.,0.));
#469=CARTESIAN_POINT('',(-2.38,0.,8.));
#470=CARTESIAN_POINT('',(2.38,0.,8.));
#471=CARTESIAN_POINT('',(-2.38,0.,0.));
#472=CARTESIAN_POINT('Origin',(-2.38,0.,0.));
#473=CARTESIAN_POINT('',(-2.38,1.6,8.));
#474=CARTESIAN_POINT('',(-2.38,0.,8.));
#475=CARTESIAN_POINT('',(-2.38,1.6,0.));
#476=CARTESIAN_POINT('Origin',(-2.38,1.6,0.));
#477=CARTESIAN_POINT('',(-10.32,1.6,8.));
#478=CARTESIAN_POINT('',(-2.38,1.6,8.));
#479=CARTESIAN_POINT('',(-10.32,1.6,0.));
#480=CARTESIAN_POINT('Origin',(-10.32,1.6,0.));
#481=CARTESIAN_POINT('',(-13.89,6.,8.));
#482=CARTESIAN_POINT('',(-10.32,1.6,8.));
#483=CARTESIAN_POINT('',(-13.89,6.,0.));
#484=CARTESIAN_POINT('Origin',(-13.89,6.,0.));
#485=CARTESIAN_POINT('',(-12.985074433373,17.46,8.));
#486=CARTESIAN_POINT('',(-13.89,6.,8.));
#487=CARTESIAN_POINT('',(-12.985074433373,17.46,0.));
#488=CARTESIAN_POINT('Origin',(-12.985074433373,17.46,0.));
#489=CARTESIAN_POINT('',(-9.92,17.46,8.));
#490=CARTESIAN_POINT('',(-12.985074433373,17.46,8.));
#491=CARTESIAN_POINT('',(-9.92,17.46,0.));
#492=CARTESIAN_POINT('Origin',(-9.92,17.46,0.));
#493=CARTESIAN_POINT('',(-4.76,6.,8.));
#494=CARTESIAN_POINT('',(-9.92,17.46,8.));
#495=CARTESIAN_POINT('',(-4.76,6.,0.));
#496=CARTESIAN_POINT('Origin',(-4.76,6.,0.));
#497=CARTESIAN_POINT('',(4.76,6.,8.));
#498=CARTESIAN_POINT('',(-4.76,6.,8.));
#499=CARTESIAN_POINT('',(4.76,6.,0.));
#500=CARTESIAN_POINT('Origin',(4.76,6.,0.));
#501=CARTESIAN_POINT('',(9.92,17.46,8.));
#502=CARTESIAN_POINT('',(4.76,6.,8.));
#503=CARTESIAN_POINT('',(9.92,17.46,0.));
#504=CARTESIAN_POINT('Origin',(9.92,17.46,0.));
#505=CARTESIAN_POINT('',(12.414925566627,17.46,8.));
#506=CARTESIAN_POINT('',(9.92,17.46,8.));
#507=CARTESIAN_POINT('',(12.414925566627,17.46,0.));
#508=CARTESIAN_POINT('Origin',(12.414925566627,17.46,0.));
#509=CARTESIAN_POINT('',(13.89,6.,8.));
#510=CARTESIAN_POINT('',(12.414925566627,17.46,8.));
#511=CARTESIAN_POINT('',(13.89,6.,0.));
#512=CARTESIAN_POINT('Origin',(13.89,6.,0.));
#513=CARTESIAN_POINT('',(10.32,1.6,8.));
#514=CARTESIAN_POINT('',(13.89,6.,8.));
#515=CARTESIAN_POINT('',(10.32,1.6,0.));
#516=CARTESIAN_POINT('Origin',(10.32,1.6,0.));
#517=CARTESIAN_POINT('',(10.32,1.6,8.));
#518=CARTESIAN_POINT('Origin',(-0.0989828036375925,8.02992269202577,8.));
#519=UNCERTAINTY_MEASURE_WITH_UNIT(LENGTH_MEASURE(0.01),#523,
'DISTANCE_ACCURACY_VALUE',
'Maximum model space distance between geometric entities at asserted c
onnectivities');
#520=UNCERTAINTY_MEASURE_WITH_UNIT(LENGTH_MEASURE(0.01),#523,
'DISTANCE_ACCURACY_VALUE',
'Maximum model space distance between geometric entities at asserted c
onnectivities');
#521=(
GEOMETRIC_REPRESENTATION_CONTEXT(3)
GLOBAL_UNCERTAINTY_ASSIGNED_CONTEXT((#519))
GLOBAL_UNIT_ASSIGNED_CONTEXT((#523,#525,#526))
REPRESENTATION_CONTEXT('','3D')
);
#522=(
GEOMETRIC_REPRESENTATION_CONTEXT(3)
GLOBAL_UNCERTAINTY_ASSIGNED_CONTEXT((#520))
GLOBAL_UNIT_ASSIGNED_CONTEXT((#523,#525,#526))
REPRESENTATION_CONTEXT('','3D')
);
#523=(
LENGTH_UNIT()
NAMED_UNIT(*)
SI_UNIT(.MILLI.,.METRE.)
);
#524=(
LENGTH_UNIT()
NAMED_UNIT(*)
SI_UNIT(.CENTI.,.METRE.)
);
#525=(
NAMED_UNIT(*)
PLANE_ANGLE_UNIT()
SI_UNIT($,.RADIAN.)
);
#526=(
NAMED_UNIT(*)
SI_UNIT($,.STERADIAN.)
SOLID_ANGLE_UNIT()
);
#527=SHAPE_DEFINITION_REPRESENTATION(#528,#529);
#528=PRODUCT_DEFINITION_SHAPE('',$,#531);
#529=SHAPE_REPRESENTATION('',(#339),#521);
#530=PRODUCT_DEFINITION_CONTEXT('part definition',#535,'design');
#531=PRODUCT_DEFINITION('WKZ-0051','E_3_01_10_18_00_WKZ-0051',#532,#530);
#532=PRODUCT_DEFINITION_FORMATION('',$,#537);
#533=PRODUCT_RELATED_PRODUCT_CATEGORY('E_3_01_10_18_00_WKZ-0051',
'E_3_01_10_18_00_WKZ-0051',(#537));
#534=APPLICATION_PROTOCOL_DEFINITION('international standard',
'automotive_design',2009,#535);
#535=APPLICATION_CONTEXT(
'Core Data for Automotive Mechanical Design Process');
#536=PRODUCT_CONTEXT('part definition',#535,'mechanical');
#537=PRODUCT('WKZ-0051','E_3_01_10_18_00_WKZ-0051',$,(#536));
#538=PRESENTATION_STYLE_ASSIGNMENT((#539));
#539=SURFACE_STYLE_USAGE(.BOTH.,#542);
#540=SURFACE_STYLE_RENDERING_WITH_PROPERTIES($,#546,(#541));
#541=SURFACE_STYLE_TRANSPARENT(0.);
#542=SURFACE_SIDE_STYLE('',(#543,#540));
#543=SURFACE_STYLE_FILL_AREA(#544);
#544=FILL_AREA_STYLE('',(#545));
#545=FILL_AREA_STYLE_COLOUR('',#546);
#546=COLOUR_RGB('',0.92156862745098,0.92156862745098,0.92156862745098);
ENDSEC;
END-ISO-10303-21;
