ISO-10303-21;
HEADER;
/* Generated by software containing ST-Developer
 * from STEP Tools, Inc. (www.steptools.com) 
 */

FILE_DESCRIPTION(
/* description */ (''),
/* implementation_level */ '2;1');

FILE_NAME(
/* name */ 'E_3_01_10_18_00_WKZ-0048.stp',
/* time_stamp */ '2025-11-24T10:30:38+01:00',
/* author */ ('d.fischer'),
/* organization */ (''),
/* preprocessor_version */ 'ST-DEVELOPER v20',
/* originating_system */ 'Autodesk Inventor 2025',
/* authorisation */ '');

FILE_SCHEMA (('AUTOMOTIVE_DESIGN { 1 0 10303 214 3 1 1 }'));
ENDSEC;

DATA;
#10=MECHANICAL_DESIGN_GEOMETRIC_PRESENTATION_REPRESENTATION('',(#13),#590);
#11=SHAPE_REPRESENTATION_RELATIONSHIP('SRR','None',#597,#12);
#12=ADVANCED_BREP_SHAPE_REPRESENTATION('',(#14),#589);
#13=STYLED_ITEM('',(#606),#14);
#14=MANIFOLD_SOLID_BREP('Volumenk\X\F6rper1',#357);
#15=CYLINDRICAL_SURFACE('',#393,1.50000000000001);
#16=FACE_OUTER_BOUND('',#34,.T.);
#17=FACE_OUTER_BOUND('',#35,.T.);
#18=FACE_OUTER_BOUND('',#36,.T.);
#19=FACE_OUTER_BOUND('',#37,.T.);
#20=FACE_OUTER_BOUND('',#38,.T.);
#21=FACE_OUTER_BOUND('',#39,.T.);
#22=FACE_OUTER_BOUND('',#40,.T.);
#23=FACE_OUTER_BOUND('',#41,.T.);
#24=FACE_OUTER_BOUND('',#42,.T.);
#25=FACE_OUTER_BOUND('',#43,.T.);
#26=FACE_OUTER_BOUND('',#44,.T.);
#27=FACE_OUTER_BOUND('',#45,.T.);
#28=FACE_OUTER_BOUND('',#46,.T.);
#29=FACE_OUTER_BOUND('',#47,.T.);
#30=FACE_OUTER_BOUND('',#48,.T.);
#31=FACE_OUTER_BOUND('',#49,.T.);
#32=FACE_OUTER_BOUND('',#50,.T.);
#33=FACE_OUTER_BOUND('',#51,.T.);
#34=EDGE_LOOP('',(#226,#227,#228,#229,#230,#231,#232,#233,#234,#235,#236,
#237,#238,#239,#240,#241));
#35=EDGE_LOOP('',(#242,#243,#244,#245));
#36=EDGE_LOOP('',(#246,#247,#248,#249));
#37=EDGE_LOOP('',(#250,#251,#252,#253));
#38=EDGE_LOOP('',(#254,#255,#256,#257));
#39=EDGE_LOOP('',(#258,#259,#260,#261));
#40=EDGE_LOOP('',(#262,#263,#264,#265));
#41=EDGE_LOOP('',(#266,#267,#268,#269));
#42=EDGE_LOOP('',(#270,#271,#272,#273));
#43=EDGE_LOOP('',(#274,#275,#276,#277));
#44=EDGE_LOOP('',(#278,#279,#280,#281));
#45=EDGE_LOOP('',(#282,#283,#284,#285));
#46=EDGE_LOOP('',(#286,#287,#288,#289));
#47=EDGE_LOOP('',(#290,#291,#292,#293));
#48=EDGE_LOOP('',(#294,#295,#296,#297));
#49=EDGE_LOOP('',(#298,#299,#300,#301));
#50=EDGE_LOOP('',(#302,#303,#304,#305));
#51=EDGE_LOOP('',(#306,#307,#308,#309,#310,#311,#312,#313,#314,#315,#316,
#317,#318,#319,#320,#321));
#52=CIRCLE('',#381,1.50000000000001);
#53=CIRCLE('',#394,1.50000000000001);
#54=LINE('',#492,#100);
#55=LINE('',#494,#101);
#56=LINE('',#496,#102);
#57=LINE('',#498,#103);
#58=LINE('',#500,#104);
#59=LINE('',#502,#105);
#60=LINE('',#504,#106);
#61=LINE('',#506,#107);
#62=LINE('',#508,#108);
#63=LINE('',#510,#109);
#64=LINE('',#512,#110);
#65=LINE('',#514,#111);
#66=LINE('',#516,#112);
#67=LINE('',#520,#113);
#68=LINE('',#521,#114);
#69=LINE('',#525,#115);
#70=LINE('',#526,#116);
#71=LINE('',#527,#117);
#72=LINE('',#530,#118);
#73=LINE('',#531,#119);
#74=LINE('',#534,#120);
#75=LINE('',#535,#121);
#76=LINE('',#538,#122);
#77=LINE('',#539,#123);
#78=LINE('',#542,#124);
#79=LINE('',#543,#125);
#80=LINE('',#546,#126);
#81=LINE('',#547,#127);
#82=LINE('',#550,#128);
#83=LINE('',#551,#129);
#84=LINE('',#554,#130);
#85=LINE('',#555,#131);
#86=LINE('',#558,#132);
#87=LINE('',#559,#133);
#88=LINE('',#562,#134);
#89=LINE('',#563,#135);
#90=LINE('',#566,#136);
#91=LINE('',#567,#137);
#92=LINE('',#571,#138);
#93=LINE('',#574,#139);
#94=LINE('',#575,#140);
#95=LINE('',#578,#141);
#96=LINE('',#579,#142);
#97=LINE('',#582,#143);
#98=LINE('',#583,#144);
#99=LINE('',#585,#145);
#100=VECTOR('',#404,10.);
#101=VECTOR('',#405,10.);
#102=VECTOR('',#406,10.);
#103=VECTOR('',#407,10.);
#104=VECTOR('',#408,10.);
#105=VECTOR('',#409,10.);
#106=VECTOR('',#410,10.);
#107=VECTOR('',#411,10.);
#108=VECTOR('',#412,10.);
#109=VECTOR('',#413,10.);
#110=VECTOR('',#414,10.);
#111=VECTOR('',#415,10.);
#112=VECTOR('',#416,10.);
#113=VECTOR('',#419,10.);
#114=VECTOR('',#420,10.);
#115=VECTOR('',#423,10.);
#116=VECTOR('',#424,10.);
#117=VECTOR('',#425,10.);
#118=VECTOR('',#428,10.);
#119=VECTOR('',#429,10.);
#120=VECTOR('',#432,10.);
#121=VECTOR('',#433,10.);
#122=VECTOR('',#436,10.);
#123=VECTOR('',#437,10.);
#124=VECTOR('',#440,10.);
#125=VECTOR('',#441,10.);
#126=VECTOR('',#444,10.);
#127=VECTOR('',#445,10.);
#128=VECTOR('',#448,10.);
#129=VECTOR('',#449,10.);
#130=VECTOR('',#452,10.);
#131=VECTOR('',#453,10.);
#132=VECTOR('',#456,10.);
#133=VECTOR('',#457,10.);
#134=VECTOR('',#460,10.);
#135=VECTOR('',#461,10.);
#136=VECTOR('',#464,10.);
#137=VECTOR('',#465,10.);
#138=VECTOR('',#470,10.);
#139=VECTOR('',#473,10.);
#140=VECTOR('',#474,10.);
#141=VECTOR('',#477,10.);
#142=VECTOR('',#478,10.);
#143=VECTOR('',#481,10.);
#144=VECTOR('',#482,10.);
#145=VECTOR('',#485,10.);
#146=VERTEX_POINT('',#490);
#147=VERTEX_POINT('',#491);
#148=VERTEX_POINT('',#493);
#149=VERTEX_POINT('',#495);
#150=VERTEX_POINT('',#497);
#151=VERTEX_POINT('',#499);
#152=VERTEX_POINT('',#501);
#153=VERTEX_POINT('',#503);
#154=VERTEX_POINT('',#505);
#155=VERTEX_POINT('',#507);
#156=VERTEX_POINT('',#509);
#157=VERTEX_POINT('',#511);
#158=VERTEX_POINT('',#513);
#159=VERTEX_POINT('',#515);
#160=VERTEX_POINT('',#517);
#161=VERTEX_POINT('',#519);
#162=VERTEX_POINT('',#523);
#163=VERTEX_POINT('',#524);
#164=VERTEX_POINT('',#529);
#165=VERTEX_POINT('',#533);
#166=VERTEX_POINT('',#537);
#167=VERTEX_POINT('',#541);
#168=VERTEX_POINT('',#545);
#169=VERTEX_POINT('',#549);
#170=VERTEX_POINT('',#553);
#171=VERTEX_POINT('',#557);
#172=VERTEX_POINT('',#561);
#173=VERTEX_POINT('',#565);
#174=VERTEX_POINT('',#569);
#175=VERTEX_POINT('',#573);
#176=VERTEX_POINT('',#577);
#177=VERTEX_POINT('',#581);
#178=EDGE_CURVE('',#146,#147,#54,.T.);
#179=EDGE_CURVE('',#148,#146,#55,.T.);
#180=EDGE_CURVE('',#149,#148,#56,.T.);
#181=EDGE_CURVE('',#150,#149,#57,.T.);
#182=EDGE_CURVE('',#151,#150,#58,.T.);
#183=EDGE_CURVE('',#152,#151,#59,.T.);
#184=EDGE_CURVE('',#153,#152,#60,.T.);
#185=EDGE_CURVE('',#154,#153,#61,.T.);
#186=EDGE_CURVE('',#155,#154,#62,.T.);
#187=EDGE_CURVE('',#156,#155,#63,.T.);
#188=EDGE_CURVE('',#157,#156,#64,.T.);
#189=EDGE_CURVE('',#158,#157,#65,.T.);
#190=EDGE_CURVE('',#159,#158,#66,.T.);
#191=EDGE_CURVE('',#160,#159,#52,.T.);
#192=EDGE_CURVE('',#161,#160,#67,.T.);
#193=EDGE_CURVE('',#147,#161,#68,.T.);
#194=EDGE_CURVE('',#162,#163,#69,.T.);
#195=EDGE_CURVE('',#163,#149,#70,.T.);
#196=EDGE_CURVE('',#162,#148,#71,.T.);
#197=EDGE_CURVE('',#163,#164,#72,.T.);
#198=EDGE_CURVE('',#164,#150,#73,.T.);
#199=EDGE_CURVE('',#164,#165,#74,.T.);
#200=EDGE_CURVE('',#165,#151,#75,.T.);
#201=EDGE_CURVE('',#165,#166,#76,.T.);
#202=EDGE_CURVE('',#166,#152,#77,.T.);
#203=EDGE_CURVE('',#166,#167,#78,.T.);
#204=EDGE_CURVE('',#167,#153,#79,.T.);
#205=EDGE_CURVE('',#167,#168,#80,.T.);
#206=EDGE_CURVE('',#168,#154,#81,.T.);
#207=EDGE_CURVE('',#168,#169,#82,.T.);
#208=EDGE_CURVE('',#169,#155,#83,.T.);
#209=EDGE_CURVE('',#169,#170,#84,.T.);
#210=EDGE_CURVE('',#170,#156,#85,.T.);
#211=EDGE_CURVE('',#170,#171,#86,.T.);
#212=EDGE_CURVE('',#171,#157,#87,.T.);
#213=EDGE_CURVE('',#171,#172,#88,.T.);
#214=EDGE_CURVE('',#172,#158,#89,.T.);
#215=EDGE_CURVE('',#172,#173,#90,.T.);
#216=EDGE_CURVE('',#173,#159,#91,.T.);
#217=EDGE_CURVE('',#173,#174,#53,.T.);
#218=EDGE_CURVE('',#174,#160,#92,.T.);
#219=EDGE_CURVE('',#174,#175,#93,.T.);
#220=EDGE_CURVE('',#175,#161,#94,.T.);
#221=EDGE_CURVE('',#175,#176,#95,.T.);
#222=EDGE_CURVE('',#176,#147,#96,.T.);
#223=EDGE_CURVE('',#176,#177,#97,.T.);
#224=EDGE_CURVE('',#146,#177,#98,.T.);
#225=EDGE_CURVE('',#177,#162,#99,.T.);
#226=ORIENTED_EDGE('',*,*,#178,.F.);
#227=ORIENTED_EDGE('',*,*,#179,.F.);
#228=ORIENTED_EDGE('',*,*,#180,.F.);
#229=ORIENTED_EDGE('',*,*,#181,.F.);
#230=ORIENTED_EDGE('',*,*,#182,.F.);
#231=ORIENTED_EDGE('',*,*,#183,.F.);
#232=ORIENTED_EDGE('',*,*,#184,.F.);
#233=ORIENTED_EDGE('',*,*,#185,.F.);
#234=ORIENTED_EDGE('',*,*,#186,.F.);
#235=ORIENTED_EDGE('',*,*,#187,.F.);
#236=ORIENTED_EDGE('',*,*,#188,.F.);
#237=ORIENTED_EDGE('',*,*,#189,.F.);
#238=ORIENTED_EDGE('',*,*,#190,.F.);
#239=ORIENTED_EDGE('',*,*,#191,.F.);
#240=ORIENTED_EDGE('',*,*,#192,.F.);
#241=ORIENTED_EDGE('',*,*,#193,.F.);
#242=ORIENTED_EDGE('',*,*,#194,.T.);
#243=ORIENTED_EDGE('',*,*,#195,.T.);
#244=ORIENTED_EDGE('',*,*,#180,.T.);
#245=ORIENTED_EDGE('',*,*,#196,.F.);
#246=ORIENTED_EDGE('',*,*,#197,.T.);
#247=ORIENTED_EDGE('',*,*,#198,.T.);
#248=ORIENTED_EDGE('',*,*,#181,.T.);
#249=ORIENTED_EDGE('',*,*,#195,.F.);
#250=ORIENTED_EDGE('',*,*,#199,.T.);
#251=ORIENTED_EDGE('',*,*,#200,.T.);
#252=ORIENTED_EDGE('',*,*,#182,.T.);
#253=ORIENTED_EDGE('',*,*,#198,.F.);
#254=ORIENTED_EDGE('',*,*,#201,.T.);
#255=ORIENTED_EDGE('',*,*,#202,.T.);
#256=ORIENTED_EDGE('',*,*,#183,.T.);
#257=ORIENTED_EDGE('',*,*,#200,.F.);
#258=ORIENTED_EDGE('',*,*,#203,.T.);
#259=ORIENTED_EDGE('',*,*,#204,.T.);
#260=ORIENTED_EDGE('',*,*,#184,.T.);
#261=ORIENTED_EDGE('',*,*,#202,.F.);
#262=ORIENTED_EDGE('',*,*,#205,.T.);
#263=ORIENTED_EDGE('',*,*,#206,.T.);
#264=ORIENTED_EDGE('',*,*,#185,.T.);
#265=ORIENTED_EDGE('',*,*,#204,.F.);
#266=ORIENTED_EDGE('',*,*,#207,.T.);
#267=ORIENTED_EDGE('',*,*,#208,.T.);
#268=ORIENTED_EDGE('',*,*,#186,.T.);
#269=ORIENTED_EDGE('',*,*,#206,.F.);
#270=ORIENTED_EDGE('',*,*,#209,.T.);
#271=ORIENTED_EDGE('',*,*,#210,.T.);
#272=ORIENTED_EDGE('',*,*,#187,.T.);
#273=ORIENTED_EDGE('',*,*,#208,.F.);
#274=ORIENTED_EDGE('',*,*,#211,.T.);
#275=ORIENTED_EDGE('',*,*,#212,.T.);
#276=ORIENTED_EDGE('',*,*,#188,.T.);
#277=ORIENTED_EDGE('',*,*,#210,.F.);
#278=ORIENTED_EDGE('',*,*,#213,.T.);
#279=ORIENTED_EDGE('',*,*,#214,.T.);
#280=ORIENTED_EDGE('',*,*,#189,.T.);
#281=ORIENTED_EDGE('',*,*,#212,.F.);
#282=ORIENTED_EDGE('',*,*,#215,.T.);
#283=ORIENTED_EDGE('',*,*,#216,.T.);
#284=ORIENTED_EDGE('',*,*,#190,.T.);
#285=ORIENTED_EDGE('',*,*,#214,.F.);
#286=ORIENTED_EDGE('',*,*,#217,.T.);
#287=ORIENTED_EDGE('',*,*,#218,.T.);
#288=ORIENTED_EDGE('',*,*,#191,.T.);
#289=ORIENTED_EDGE('',*,*,#216,.F.);
#290=ORIENTED_EDGE('',*,*,#219,.T.);
#291=ORIENTED_EDGE('',*,*,#220,.T.);
#292=ORIENTED_EDGE('',*,*,#192,.T.);
#293=ORIENTED_EDGE('',*,*,#218,.F.);
#294=ORIENTED_EDGE('',*,*,#221,.T.);
#295=ORIENTED_EDGE('',*,*,#222,.T.);
#296=ORIENTED_EDGE('',*,*,#193,.T.);
#297=ORIENTED_EDGE('',*,*,#220,.F.);
#298=ORIENTED_EDGE('',*,*,#223,.T.);
#299=ORIENTED_EDGE('',*,*,#224,.F.);
#300=ORIENTED_EDGE('',*,*,#178,.T.);
#301=ORIENTED_EDGE('',*,*,#222,.F.);
#302=ORIENTED_EDGE('',*,*,#225,.T.);
#303=ORIENTED_EDGE('',*,*,#196,.T.);
#304=ORIENTED_EDGE('',*,*,#179,.T.);
#305=ORIENTED_EDGE('',*,*,#224,.T.);
#306=ORIENTED_EDGE('',*,*,#194,.F.);
#307=ORIENTED_EDGE('',*,*,#225,.F.);
#308=ORIENTED_EDGE('',*,*,#223,.F.);
#309=ORIENTED_EDGE('',*,*,#221,.F.);
#310=ORIENTED_EDGE('',*,*,#219,.F.);
#311=ORIENTED_EDGE('',*,*,#217,.F.);
#312=ORIENTED_EDGE('',*,*,#215,.F.);
#313=ORIENTED_EDGE('',*,*,#213,.F.);
#314=ORIENTED_EDGE('',*,*,#211,.F.);
#315=ORIENTED_EDGE('',*,*,#209,.F.);
#316=ORIENTED_EDGE('',*,*,#207,.F.);
#317=ORIENTED_EDGE('',*,*,#205,.F.);
#318=ORIENTED_EDGE('',*,*,#203,.F.);
#319=ORIENTED_EDGE('',*,*,#201,.F.);
#320=ORIENTED_EDGE('',*,*,#199,.F.);
#321=ORIENTED_EDGE('',*,*,#197,.F.);
#322=PLANE('',#380);
#323=PLANE('',#382);
#324=PLANE('',#383);
#325=PLANE('',#384);
#326=PLANE('',#385);
#327=PLANE('',#386);
#328=PLANE('',#387);
#329=PLANE('',#388);
#330=PLANE('',#389);
#331=PLANE('',#390);
#332=PLANE('',#391);
#333=PLANE('',#392);
#334=PLANE('',#395);
#335=PLANE('',#396);
#336=PLANE('',#397);
#337=PLANE('',#398);
#338=PLANE('',#399);
#339=ADVANCED_FACE('',(#16),#322,.F.);
#340=ADVANCED_FACE('',(#17),#323,.T.);
#341=ADVANCED_FACE('',(#18),#324,.T.);
#342=ADVANCED_FACE('',(#19),#325,.T.);
#343=ADVANCED_FACE('',(#20),#326,.T.);
#344=ADVANCED_FACE('',(#21),#327,.T.);
#345=ADVANCED_FACE('',(#22),#328,.T.);
#346=ADVANCED_FACE('',(#23),#329,.T.);
#347=ADVANCED_FACE('',(#24),#330,.T.);
#348=ADVANCED_FACE('',(#25),#331,.T.);
#349=ADVANCED_FACE('',(#26),#332,.T.);
#350=ADVANCED_FACE('',(#27),#333,.T.);
#351=ADVANCED_FACE('',(#28),#15,.F.);
#352=ADVANCED_FACE('',(#29),#334,.T.);
#353=ADVANCED_FACE('',(#30),#335,.T.);
#354=ADVANCED_FACE('',(#31),#336,.T.);
#355=ADVANCED_FACE('',(#32),#337,.T.);
#356=ADVANCED_FACE('',(#33),#338,.T.);
#357=CLOSED_SHELL('',(#339,#340,#341,#342,#343,#344,#345,#346,#347,#348,
#349,#350,#351,#352,#353,#354,#355,#356));
#358=DERIVED_UNIT_ELEMENT(#361,1.);
#359=DERIVED_UNIT_ELEMENT(#592,-3.);
#360=DIMENSIONAL_EXPONENTS(0.,1.,0.,0.,0.,0.,0.);
#361=(
CONVERSION_BASED_UNIT('gram',#363)
MASS_UNIT()
NAMED_UNIT(#360)
);
#362=(
MASS_UNIT()
NAMED_UNIT(*)
SI_UNIT(.KILO.,.GRAM.)
);
#363=MASS_MEASURE_WITH_UNIT(MASS_MEASURE(0.001),#362);
#364=DERIVED_UNIT((#358,#359));
#365=MEASURE_REPRESENTATION_ITEM('density measure',
POSITIVE_RATIO_MEASURE(8.03),#364);
#366=PROPERTY_DEFINITION_REPRESENTATION(#371,#368);
#367=PROPERTY_DEFINITION_REPRESENTATION(#372,#369);
#368=REPRESENTATION('material name',(#370),#589);
#369=REPRESENTATION('density',(#365),#589);
#370=DESCRIPTIVE_REPRESENTATION_ITEM('1.4301','1.4301');
#371=PROPERTY_DEFINITION('material property','material name',#599);
#372=PROPERTY_DEFINITION('material property','density of part',#599);
#373=DATE_TIME_ROLE('creation_date');
#374=APPLIED_DATE_AND_TIME_ASSIGNMENT(#375,#373,(#599));
#375=DATE_AND_TIME(#376,#377);
#376=CALENDAR_DATE(2011,19,10);
#377=LOCAL_TIME(0,0,0.,#378);
#378=COORDINATED_UNIVERSAL_TIME_OFFSET(0,0,.BEHIND.);
#379=AXIS2_PLACEMENT_3D('',#488,#400,#401);
#380=AXIS2_PLACEMENT_3D('',#489,#402,#403);
#381=AXIS2_PLACEMENT_3D('',#518,#417,#418);
#382=AXIS2_PLACEMENT_3D('',#522,#421,#422);
#383=AXIS2_PLACEMENT_3D('',#528,#426,#427);
#384=AXIS2_PLACEMENT_3D('',#532,#430,#431);
#385=AXIS2_PLACEMENT_3D('',#536,#434,#435);
#386=AXIS2_PLACEMENT_3D('',#540,#438,#439);
#387=AXIS2_PLACEMENT_3D('',#544,#442,#443);
#388=AXIS2_PLACEMENT_3D('',#548,#446,#447);
#389=AXIS2_PLACEMENT_3D('',#552,#450,#451);
#390=AXIS2_PLACEMENT_3D('',#556,#454,#455);
#391=AXIS2_PLACEMENT_3D('',#560,#458,#459);
#392=AXIS2_PLACEMENT_3D('',#564,#462,#463);
#393=AXIS2_PLACEMENT_3D('',#568,#466,#467);
#394=AXIS2_PLACEMENT_3D('',#570,#468,#469);
#395=AXIS2_PLACEMENT_3D('',#572,#471,#472);
#396=AXIS2_PLACEMENT_3D('',#576,#475,#476);
#397=AXIS2_PLACEMENT_3D('',#580,#479,#480);
#398=AXIS2_PLACEMENT_3D('',#584,#483,#484);
#399=AXIS2_PLACEMENT_3D('',#586,#486,#487);
#400=DIRECTION('axis',(0.,0.,1.));
#401=DIRECTION('refdir',(1.,0.,0.));
#402=DIRECTION('center_axis',(0.,0.,1.));
#403=DIRECTION('ref_axis',(1.,0.,0.));
#404=DIRECTION('',(0.,1.,0.));
#405=DIRECTION('',(1.,0.,0.));
#406=DIRECTION('',(0.,-1.,0.));
#407=DIRECTION('',(1.,0.,0.));
#408=DIRECTION('',(0.,1.,0.));
#409=DIRECTION('',(1.,0.,0.));
#410=DIRECTION('',(0.,-1.,0.));
#411=DIRECTION('',(1.,0.,0.));
#412=DIRECTION('',(0.,1.,0.));
#413=DIRECTION('',(1.,0.,0.));
#414=DIRECTION('',(0.,-1.,0.));
#415=DIRECTION('',(-1.,0.,0.));
#416=DIRECTION('',(-0.707106781186548,0.707106781186547,0.));
#417=DIRECTION('center_axis',(0.,0.,-1.));
#418=DIRECTION('ref_axis',(-0.707106781186547,-0.707106781186548,0.));
#419=DIRECTION('',(-0.707106781186548,-0.707106781186547,0.));
#420=DIRECTION('',(-1.,0.,0.));
#421=DIRECTION('center_axis',(-1.,0.,0.));
#422=DIRECTION('ref_axis',(0.,0.,1.));
#423=DIRECTION('',(0.,1.,0.));
#424=DIRECTION('',(0.,0.,-1.));
#425=DIRECTION('',(0.,0.,-1.));
#426=DIRECTION('center_axis',(0.,-1.,0.));
#427=DIRECTION('ref_axis',(0.,0.,-1.));
#428=DIRECTION('',(-1.,0.,0.));
#429=DIRECTION('',(0.,0.,-1.));
#430=DIRECTION('center_axis',(1.,0.,0.));
#431=DIRECTION('ref_axis',(0.,0.,-1.));
#432=DIRECTION('',(0.,-1.,0.));
#433=DIRECTION('',(0.,0.,-1.));
#434=DIRECTION('center_axis',(0.,-1.,0.));
#435=DIRECTION('ref_axis',(0.,0.,-1.));
#436=DIRECTION('',(-1.,0.,0.));
#437=DIRECTION('',(0.,0.,-1.));
#438=DIRECTION('center_axis',(-1.,0.,0.));
#439=DIRECTION('ref_axis',(0.,0.,1.));
#440=DIRECTION('',(0.,1.,0.));
#441=DIRECTION('',(0.,0.,-1.));
#442=DIRECTION('center_axis',(0.,-1.,0.));
#443=DIRECTION('ref_axis',(0.,0.,-1.));
#444=DIRECTION('',(-1.,0.,0.));
#445=DIRECTION('',(0.,0.,-1.));
#446=DIRECTION('center_axis',(1.,0.,0.));
#447=DIRECTION('ref_axis',(0.,0.,-1.));
#448=DIRECTION('',(0.,-1.,0.));
#449=DIRECTION('',(0.,0.,-1.));
#450=DIRECTION('center_axis',(0.,-1.,0.));
#451=DIRECTION('ref_axis',(0.,0.,-1.));
#452=DIRECTION('',(-1.,0.,0.));
#453=DIRECTION('',(0.,0.,-1.));
#454=DIRECTION('center_axis',(-1.,0.,0.));
#455=DIRECTION('ref_axis',(0.,0.,1.));
#456=DIRECTION('',(0.,1.,0.));
#457=DIRECTION('',(0.,0.,-1.));
#458=DIRECTION('center_axis',(0.,1.,0.));
#459=DIRECTION('ref_axis',(0.,0.,1.));
#460=DIRECTION('',(1.,0.,0.));
#461=DIRECTION('',(0.,0.,-1.));
#462=DIRECTION('center_axis',(0.707106781186547,0.707106781186548,0.));
#463=DIRECTION('ref_axis',(0.,0.,-1.));
#464=DIRECTION('',(0.707106781186548,-0.707106781186547,0.));
#465=DIRECTION('',(0.,0.,-1.));
#466=DIRECTION('center_axis',(0.,0.,1.));
#467=DIRECTION('ref_axis',(-0.707106781186547,-0.707106781186548,0.));
#468=DIRECTION('center_axis',(0.,0.,1.));
#469=DIRECTION('ref_axis',(-0.707106781186547,-0.707106781186548,0.));
#470=DIRECTION('',(0.,0.,-1.));
#471=DIRECTION('center_axis',(-0.707106781186547,0.707106781186548,0.));
#472=DIRECTION('ref_axis',(0.,0.,1.));
#473=DIRECTION('',(0.707106781186548,0.707106781186547,0.));
#474=DIRECTION('',(0.,0.,-1.));
#475=DIRECTION('center_axis',(0.,1.,0.));
#476=DIRECTION('ref_axis',(0.,0.,1.));
#477=DIRECTION('',(1.,0.,0.));
#478=DIRECTION('',(0.,0.,-1.));
#479=DIRECTION('center_axis',(1.,0.,0.));
#480=DIRECTION('ref_axis',(0.,0.,-1.));
#481=DIRECTION('',(0.,-1.,0.));
#482=DIRECTION('',(0.,0.,1.));
#483=DIRECTION('center_axis',(0.,-1.,0.));
#484=DIRECTION('ref_axis',(0.,0.,-1.));
#485=DIRECTION('',(-1.,0.,0.));
#486=DIRECTION('center_axis',(0.,0.,1.));
#487=DIRECTION('ref_axis',(1.,0.,0.));
#488=CARTESIAN_POINT('',(0.,0.,0.));
#489=CARTESIAN_POINT('Origin',(8.32667268468867E-16,-1.21003208186615,-8.));
#490=CARTESIAN_POINT('',(14.,-7.75,-8.));
#491=CARTESIAN_POINT('',(14.,7.75,-8.));
#492=CARTESIAN_POINT('',(14.,7.75,-8.));
#493=CARTESIAN_POINT('',(10.,-7.75,-8.));
#494=CARTESIAN_POINT('',(14.,-7.75,-8.));
#495=CARTESIAN_POINT('',(10.,-6.25,-8.));
#496=CARTESIAN_POINT('',(10.,-7.75,-8.));
#497=CARTESIAN_POINT('',(2.5,-6.25,-8.));
#498=CARTESIAN_POINT('',(10.,-6.25,-8.));
#499=CARTESIAN_POINT('',(2.5,-7.75,-8.));
#500=CARTESIAN_POINT('',(2.5,-6.25,-8.));
#501=CARTESIAN_POINT('',(-2.5,-7.75,-8.));
#502=CARTESIAN_POINT('',(2.5,-7.75,-8.));
#503=CARTESIAN_POINT('',(-2.5,-6.25,-8.));
#504=CARTESIAN_POINT('',(-2.5,-7.75,-8.));
#505=CARTESIAN_POINT('',(-10.,-6.25,-8.));
#506=CARTESIAN_POINT('',(-2.5,-6.25,-8.));
#507=CARTESIAN_POINT('',(-10.,-7.75,-8.));
#508=CARTESIAN_POINT('',(-10.,-6.25,-8.));
#509=CARTESIAN_POINT('',(-14.,-7.75,-8.));
#510=CARTESIAN_POINT('',(-10.,-7.75,-8.));
#511=CARTESIAN_POINT('',(-14.,7.75,-8.));
#512=CARTESIAN_POINT('',(-14.,-7.75,-8.));
#513=CARTESIAN_POINT('',(-11.2213203435596,7.75,-8.));
#514=CARTESIAN_POINT('',(-14.,7.75,-8.));
#515=CARTESIAN_POINT('',(-1.06066017177982,-2.41066017177982,-8.));
#516=CARTESIAN_POINT('',(-11.2213203435596,7.75,-8.));
#517=CARTESIAN_POINT('',(1.06066017177982,-2.41066017177982,-8.));
#518=CARTESIAN_POINT('Origin',(0.,-1.35,-8.));
#519=CARTESIAN_POINT('',(11.2213203435596,7.75,-8.));
#520=CARTESIAN_POINT('',(1.06066017177982,-2.41066017177982,-8.));
#521=CARTESIAN_POINT('',(11.2213203435596,7.75,-8.));
#522=CARTESIAN_POINT('Origin',(10.,-7.75,0.));
#523=CARTESIAN_POINT('',(10.,-7.75,8.));
#524=CARTESIAN_POINT('',(10.,-6.25,8.));
#525=CARTESIAN_POINT('',(10.,-7.75,8.));
#526=CARTESIAN_POINT('',(10.,-6.25,0.));
#527=CARTESIAN_POINT('',(10.,-7.75,0.));
#528=CARTESIAN_POINT('Origin',(10.,-6.25,0.));
#529=CARTESIAN_POINT('',(2.5,-6.25,8.));
#530=CARTESIAN_POINT('',(10.,-6.25,8.));
#531=CARTESIAN_POINT('',(2.5,-6.25,0.));
#532=CARTESIAN_POINT('Origin',(2.5,-6.25,0.));
#533=CARTESIAN_POINT('',(2.5,-7.75,8.));
#534=CARTESIAN_POINT('',(2.5,-6.25,8.));
#535=CARTESIAN_POINT('',(2.5,-7.75,0.));
#536=CARTESIAN_POINT('Origin',(2.5,-7.75,0.));
#537=CARTESIAN_POINT('',(-2.5,-7.75,8.));
#538=CARTESIAN_POINT('',(2.5,-7.75,8.));
#539=CARTESIAN_POINT('',(-2.5,-7.75,0.));
#540=CARTESIAN_POINT('Origin',(-2.5,-7.75,0.));
#541=CARTESIAN_POINT('',(-2.5,-6.25,8.));
#542=CARTESIAN_POINT('',(-2.5,-7.75,8.));
#543=CARTESIAN_POINT('',(-2.5,-6.25,0.));
#544=CARTESIAN_POINT('Origin',(-2.5,-6.25,0.));
#545=CARTESIAN_POINT('',(-10.,-6.25,8.));
#546=CARTESIAN_POINT('',(-2.5,-6.25,8.));
#547=CARTESIAN_POINT('',(-10.,-6.25,0.));
#548=CARTESIAN_POINT('Origin',(-10.,-6.25,0.));
#549=CARTESIAN_POINT('',(-10.,-7.75,8.));
#550=CARTESIAN_POINT('',(-10.,-6.25,8.));
#551=CARTESIAN_POINT('',(-10.,-7.75,0.));
#552=CARTESIAN_POINT('Origin',(-10.,-7.75,0.));
#553=CARTESIAN_POINT('',(-14.,-7.75,8.));
#554=CARTESIAN_POINT('',(-10.,-7.75,8.));
#555=CARTESIAN_POINT('',(-14.,-7.75,0.));
#556=CARTESIAN_POINT('Origin',(-14.,-7.75,0.));
#557=CARTESIAN_POINT('',(-14.,7.75,8.));
#558=CARTESIAN_POINT('',(-14.,-7.75,8.));
#559=CARTESIAN_POINT('',(-14.,7.75,0.));
#560=CARTESIAN_POINT('Origin',(-14.,7.75,0.));
#561=CARTESIAN_POINT('',(-11.2213203435596,7.75,8.));
#562=CARTESIAN_POINT('',(-14.,7.75,8.));
#563=CARTESIAN_POINT('',(-11.2213203435596,7.75,0.));
#564=CARTESIAN_POINT('Origin',(-11.2213203435596,7.75,0.));
#565=CARTESIAN_POINT('',(-1.06066017177982,-2.41066017177982,8.));
#566=CARTESIAN_POINT('',(-11.2213203435596,7.75,8.));
#567=CARTESIAN_POINT('',(-1.06066017177982,-2.41066017177982,0.));
#568=CARTESIAN_POINT('Origin',(0.,-1.35,0.));
#569=CARTESIAN_POINT('',(1.06066017177982,-2.41066017177982,8.));
#570=CARTESIAN_POINT('Origin',(0.,-1.35,8.));
#571=CARTESIAN_POINT('',(1.06066017177982,-2.41066017177982,0.));
#572=CARTESIAN_POINT('Origin',(1.06066017177982,-2.41066017177982,0.));
#573=CARTESIAN_POINT('',(11.2213203435596,7.75,8.));
#574=CARTESIAN_POINT('',(1.06066017177982,-2.41066017177982,8.));
#575=CARTESIAN_POINT('',(11.2213203435596,7.75,0.));
#576=CARTESIAN_POINT('Origin',(11.2213203435596,7.75,0.));
#577=CARTESIAN_POINT('',(14.,7.75,8.));
#578=CARTESIAN_POINT('',(11.2213203435596,7.75,8.));
#579=CARTESIAN_POINT('',(14.,7.75,0.));
#580=CARTESIAN_POINT('Origin',(14.,7.75,0.));
#581=CARTESIAN_POINT('',(14.,-7.75,8.));
#582=CARTESIAN_POINT('',(14.,7.75,8.));
#583=CARTESIAN_POINT('',(14.,-7.75,0.));
#584=CARTESIAN_POINT('Origin',(14.,-7.75,0.));
#585=CARTESIAN_POINT('',(14.,-7.75,8.));
#586=CARTESIAN_POINT('Origin',(5.55111512312578E-16,-1.21003208186615,8.));
#587=UNCERTAINTY_MEASURE_WITH_UNIT(LENGTH_MEASURE(0.01),#591,
'DISTANCE_ACCURACY_VALUE',
'Maximum model space distance between geometric entities at asserted c
onnectivities');
#588=UNCERTAINTY_MEASURE_WITH_UNIT(LENGTH_MEASURE(0.01),#591,
'DISTANCE_ACCURACY_VALUE',
'Maximum model space distance between geometric entities at asserted c
onnectivities');
#589=(
GEOMETRIC_REPRESENTATION_CONTEXT(3)
GLOBAL_UNCERTAINTY_ASSIGNED_CONTEXT((#587))
GLOBAL_UNIT_ASSIGNED_CONTEXT((#591,#593,#594))
REPRESENTATION_CONTEXT('','3D')
);
#590=(
GEOMETRIC_REPRESENTATION_CONTEXT(3)
GLOBAL_UNCERTAINTY_ASSIGNED_CONTEXT((#588))
GLOBAL_UNIT_ASSIGNED_CONTEXT((#591,#593,#594))
REPRESENTATION_CONTEXT('','3D')
);
#591=(
LENGTH_UNIT()
NAMED_UNIT(*)
SI_UNIT(.MILLI.,.METRE.)
);
#592=(
LENGTH_UNIT()
NAMED_UNIT(*)
SI_UNIT(.CENTI.,.METRE.)
);
#593=(
NAMED_UNIT(*)
PLANE_ANGLE_UNIT()
SI_UNIT($,.RADIAN.)
);
#594=(
NAMED_UNIT(*)
SI_UNIT($,.STERADIAN.)
SOLID_ANGLE_UNIT()
);
#595=SHAPE_DEFINITION_REPRESENTATION(#596,#597);
#596=PRODUCT_DEFINITION_SHAPE('',$,#599);
#597=SHAPE_REPRESENTATION('',(#379),#589);
#598=PRODUCT_DEFINITION_CONTEXT('part definition',#603,'design');
#599=PRODUCT_DEFINITION('WKZ-0048','E_3_01_10_18_00_WKZ-0048',#600,#598);
#600=PRODUCT_DEFINITION_FORMATION('',$,#605);
#601=PRODUCT_RELATED_PRODUCT_CATEGORY('E_3_01_10_18_00_WKZ-0048',
'E_3_01_10_18_00_WKZ-0048',(#605));
#602=APPLICATION_PROTOCOL_DEFINITION('international standard',
'automotive_design',2009,#603);
#603=APPLICATION_CONTEXT(
'Core Data for Automotive Mechanical Design Process');
#604=PRODUCT_CONTEXT('part definition',#603,'mechanical');
#605=PRODUCT('WKZ-0048','E_3_01_10_18_00_WKZ-0048',$,(#604));
#606=PRESENTATION_STYLE_ASSIGNMENT((#607));
#607=SURFACE_STYLE_USAGE(.BOTH.,#610);
#608=SURFACE_STYLE_RENDERING_WITH_PROPERTIES($,#614,(#609));
#609=SURFACE_STYLE_TRANSPARENT(0.);
#610=SURFACE_SIDE_STYLE('',(#611,#608));
#611=SURFACE_STYLE_FILL_AREA(#612);
#612=FILL_AREA_STYLE('',(#613));
#613=FILL_AREA_STYLE_COLOUR('',#614);
#614=COLOUR_RGB('',0.92156862745098,0.92156862745098,0.92156862745098);
ENDSEC;
END-ISO-10303-21;
