ISO-10303-21;
HEADER;
/* Generated by software containing ST-Developer
 * from STEP Tools, Inc. (www.steptools.com) 
 */

FILE_DESCRIPTION(
/* description */ (''),
/* implementation_level */ '2;1');

FILE_NAME(
/* name */ 
'H:\\Eigene Dateien\\CAD Workspace Vault\\CAD\\E_3_Nocken\\E_3_01_Aufs
chwei\X\DFnocke\\10_Nut\\E_3_01_10_18_00_WKZ-0031.stp',
/* time_stamp */ '2024-06-07T13:19:14+02:00',
/* author */ ('DFischer'),
/* organization */ (''),
/* preprocessor_version */ 'ST-DEVELOPER v18.1',
/* originating_system */ 'Autodesk Inventor 2021',
/* authorisation */ '');

FILE_SCHEMA (('AUTOMOTIVE_DESIGN { 1 0 10303 214 3 1 1 }'));
ENDSEC;

DATA;
#10=MECHANICAL_DESIGN_GEOMETRIC_PRESENTATION_REPRESENTATION('',(#14,#15),
#289);
#11=SHAPE_REPRESENTATION_RELATIONSHIP('SRR','None',#296,#12);
#12=ADVANCED_BREP_SHAPE_REPRESENTATION('',(#13),#288);
#13=MANIFOLD_SOLID_BREP('Volumenk\X\F6rper1',#171);
#14=STYLED_ITEM('',(#306),#169);
#15=STYLED_ITEM('',(#305),#13);
#16=FACE_OUTER_BOUND('',#25,.T.);
#17=FACE_OUTER_BOUND('',#26,.T.);
#18=FACE_OUTER_BOUND('',#27,.T.);
#19=FACE_OUTER_BOUND('',#28,.T.);
#20=FACE_OUTER_BOUND('',#29,.T.);
#21=FACE_OUTER_BOUND('',#30,.T.);
#22=FACE_OUTER_BOUND('',#31,.T.);
#23=FACE_OUTER_BOUND('',#32,.T.);
#24=FACE_OUTER_BOUND('',#33,.T.);
#25=EDGE_LOOP('',(#111,#112,#113,#114,#115,#116,#117));
#26=EDGE_LOOP('',(#118,#119,#120,#121));
#27=EDGE_LOOP('',(#122,#123,#124,#125));
#28=EDGE_LOOP('',(#126,#127,#128,#129));
#29=EDGE_LOOP('',(#130,#131,#132,#133));
#30=EDGE_LOOP('',(#134,#135,#136,#137));
#31=EDGE_LOOP('',(#138,#139,#140,#141));
#32=EDGE_LOOP('',(#142,#143,#144,#145));
#33=EDGE_LOOP('',(#146,#147,#148,#149,#150,#151,#152));
#34=LINE('',#245,#55);
#35=LINE('',#247,#56);
#36=LINE('',#249,#57);
#37=LINE('',#251,#58);
#38=LINE('',#253,#59);
#39=LINE('',#255,#60);
#40=LINE('',#256,#61);
#41=LINE('',#260,#62);
#42=LINE('',#261,#63);
#43=LINE('',#262,#64);
#44=LINE('',#265,#65);
#45=LINE('',#266,#66);
#46=LINE('',#269,#67);
#47=LINE('',#270,#68);
#48=LINE('',#273,#69);
#49=LINE('',#274,#70);
#50=LINE('',#277,#71);
#51=LINE('',#278,#72);
#52=LINE('',#281,#73);
#53=LINE('',#282,#74);
#54=LINE('',#284,#75);
#55=VECTOR('',#204,10.);
#56=VECTOR('',#205,10.);
#57=VECTOR('',#206,10.);
#58=VECTOR('',#207,10.);
#59=VECTOR('',#208,10.);
#60=VECTOR('',#209,10.);
#61=VECTOR('',#210,10.);
#62=VECTOR('',#213,10.);
#63=VECTOR('',#214,10.);
#64=VECTOR('',#215,10.);
#65=VECTOR('',#218,10.);
#66=VECTOR('',#219,10.);
#67=VECTOR('',#222,10.);
#68=VECTOR('',#223,10.);
#69=VECTOR('',#226,10.);
#70=VECTOR('',#227,10.);
#71=VECTOR('',#230,10.);
#72=VECTOR('',#231,10.);
#73=VECTOR('',#234,10.);
#74=VECTOR('',#235,10.);
#75=VECTOR('',#238,10.);
#76=VERTEX_POINT('',#243);
#77=VERTEX_POINT('',#244);
#78=VERTEX_POINT('',#246);
#79=VERTEX_POINT('',#248);
#80=VERTEX_POINT('',#250);
#81=VERTEX_POINT('',#252);
#82=VERTEX_POINT('',#254);
#83=VERTEX_POINT('',#258);
#84=VERTEX_POINT('',#259);
#85=VERTEX_POINT('',#264);
#86=VERTEX_POINT('',#268);
#87=VERTEX_POINT('',#272);
#88=VERTEX_POINT('',#276);
#89=VERTEX_POINT('',#280);
#90=EDGE_CURVE('',#76,#77,#34,.T.);
#91=EDGE_CURVE('',#78,#76,#35,.T.);
#92=EDGE_CURVE('',#79,#78,#36,.T.);
#93=EDGE_CURVE('',#80,#79,#37,.T.);
#94=EDGE_CURVE('',#81,#80,#38,.T.);
#95=EDGE_CURVE('',#82,#81,#39,.T.);
#96=EDGE_CURVE('',#77,#82,#40,.T.);
#97=EDGE_CURVE('',#83,#84,#41,.T.);
#98=EDGE_CURVE('',#79,#84,#42,.T.);
#99=EDGE_CURVE('',#83,#78,#43,.T.);
#100=EDGE_CURVE('',#84,#85,#44,.T.);
#101=EDGE_CURVE('',#80,#85,#45,.T.);
#102=EDGE_CURVE('',#85,#86,#46,.T.);
#103=EDGE_CURVE('',#81,#86,#47,.T.);
#104=EDGE_CURVE('',#86,#87,#48,.T.);
#105=EDGE_CURVE('',#82,#87,#49,.T.);
#106=EDGE_CURVE('',#87,#88,#50,.T.);
#107=EDGE_CURVE('',#77,#88,#51,.T.);
#108=EDGE_CURVE('',#88,#89,#52,.T.);
#109=EDGE_CURVE('',#76,#89,#53,.T.);
#110=EDGE_CURVE('',#89,#83,#54,.T.);
#111=ORIENTED_EDGE('',*,*,#90,.F.);
#112=ORIENTED_EDGE('',*,*,#91,.F.);
#113=ORIENTED_EDGE('',*,*,#92,.F.);
#114=ORIENTED_EDGE('',*,*,#93,.F.);
#115=ORIENTED_EDGE('',*,*,#94,.F.);
#116=ORIENTED_EDGE('',*,*,#95,.F.);
#117=ORIENTED_EDGE('',*,*,#96,.F.);
#118=ORIENTED_EDGE('',*,*,#97,.T.);
#119=ORIENTED_EDGE('',*,*,#98,.F.);
#120=ORIENTED_EDGE('',*,*,#92,.T.);
#121=ORIENTED_EDGE('',*,*,#99,.F.);
#122=ORIENTED_EDGE('',*,*,#100,.T.);
#123=ORIENTED_EDGE('',*,*,#101,.F.);
#124=ORIENTED_EDGE('',*,*,#93,.T.);
#125=ORIENTED_EDGE('',*,*,#98,.T.);
#126=ORIENTED_EDGE('',*,*,#102,.T.);
#127=ORIENTED_EDGE('',*,*,#103,.F.);
#128=ORIENTED_EDGE('',*,*,#94,.T.);
#129=ORIENTED_EDGE('',*,*,#101,.T.);
#130=ORIENTED_EDGE('',*,*,#104,.T.);
#131=ORIENTED_EDGE('',*,*,#105,.F.);
#132=ORIENTED_EDGE('',*,*,#95,.T.);
#133=ORIENTED_EDGE('',*,*,#103,.T.);
#134=ORIENTED_EDGE('',*,*,#106,.T.);
#135=ORIENTED_EDGE('',*,*,#107,.F.);
#136=ORIENTED_EDGE('',*,*,#96,.T.);
#137=ORIENTED_EDGE('',*,*,#105,.T.);
#138=ORIENTED_EDGE('',*,*,#108,.T.);
#139=ORIENTED_EDGE('',*,*,#109,.F.);
#140=ORIENTED_EDGE('',*,*,#90,.T.);
#141=ORIENTED_EDGE('',*,*,#107,.T.);
#142=ORIENTED_EDGE('',*,*,#110,.T.);
#143=ORIENTED_EDGE('',*,*,#99,.T.);
#144=ORIENTED_EDGE('',*,*,#91,.T.);
#145=ORIENTED_EDGE('',*,*,#109,.T.);
#146=ORIENTED_EDGE('',*,*,#97,.F.);
#147=ORIENTED_EDGE('',*,*,#110,.F.);
#148=ORIENTED_EDGE('',*,*,#108,.F.);
#149=ORIENTED_EDGE('',*,*,#106,.F.);
#150=ORIENTED_EDGE('',*,*,#104,.F.);
#151=ORIENTED_EDGE('',*,*,#102,.F.);
#152=ORIENTED_EDGE('',*,*,#100,.F.);
#153=PLANE('',#191);
#154=PLANE('',#192);
#155=PLANE('',#193);
#156=PLANE('',#194);
#157=PLANE('',#195);
#158=PLANE('',#196);
#159=PLANE('',#197);
#160=PLANE('',#198);
#161=PLANE('',#199);
#162=ADVANCED_FACE('',(#16),#153,.F.);
#163=ADVANCED_FACE('',(#17),#154,.T.);
#164=ADVANCED_FACE('',(#18),#155,.T.);
#165=ADVANCED_FACE('',(#19),#156,.T.);
#166=ADVANCED_FACE('',(#20),#157,.T.);
#167=ADVANCED_FACE('',(#21),#158,.T.);
#168=ADVANCED_FACE('',(#22),#159,.T.);
#169=ADVANCED_FACE('',(#23),#160,.T.);
#170=ADVANCED_FACE('',(#24),#161,.T.);
#171=CLOSED_SHELL('',(#162,#163,#164,#165,#166,#167,#168,#169,#170));
#172=DERIVED_UNIT_ELEMENT(#174,1.);
#173=DERIVED_UNIT_ELEMENT(#291,3.);
#174=(
MASS_UNIT()
NAMED_UNIT(*)
SI_UNIT($,.GRAM.)
);
#175=DERIVED_UNIT((#172,#173));
#176=MEASURE_REPRESENTATION_ITEM('density measure',
POSITIVE_RATIO_MEASURE(8.03),#175);
#177=PROPERTY_DEFINITION_REPRESENTATION(#182,#179);
#178=PROPERTY_DEFINITION_REPRESENTATION(#183,#180);
#179=REPRESENTATION('material name',(#181),#288);
#180=REPRESENTATION('density',(#176),#288);
#181=DESCRIPTIVE_REPRESENTATION_ITEM('1.4301','1.4301');
#182=PROPERTY_DEFINITION('material property','material name',#298);
#183=PROPERTY_DEFINITION('material property','density of part',#298);
#184=DATE_TIME_ROLE('creation_date');
#185=APPLIED_DATE_AND_TIME_ASSIGNMENT(#186,#184,(#298));
#186=DATE_AND_TIME(#187,#188);
#187=CALENDAR_DATE(2011,26,10);
#188=LOCAL_TIME(0,0,0.,#189);
#189=COORDINATED_UNIVERSAL_TIME_OFFSET(0,0,.BEHIND.);
#190=AXIS2_PLACEMENT_3D('placement',#241,#200,#201);
#191=AXIS2_PLACEMENT_3D('',#242,#202,#203);
#192=AXIS2_PLACEMENT_3D('',#257,#211,#212);
#193=AXIS2_PLACEMENT_3D('',#263,#216,#217);
#194=AXIS2_PLACEMENT_3D('',#267,#220,#221);
#195=AXIS2_PLACEMENT_3D('',#271,#224,#225);
#196=AXIS2_PLACEMENT_3D('',#275,#228,#229);
#197=AXIS2_PLACEMENT_3D('',#279,#232,#233);
#198=AXIS2_PLACEMENT_3D('',#283,#236,#237);
#199=AXIS2_PLACEMENT_3D('',#285,#239,#240);
#200=DIRECTION('axis',(0.,0.,1.));
#201=DIRECTION('refdir',(1.,0.,0.));
#202=DIRECTION('center_axis',(0.,0.,1.));
#203=DIRECTION('ref_axis',(1.,0.,0.));
#204=DIRECTION('',(3.70074341541719E-16,1.,0.));
#205=DIRECTION('',(1.,0.,0.));
#206=DIRECTION('',(3.70074341541719E-16,-1.,0.));
#207=DIRECTION('',(-1.,-1.19991352262749E-15,0.));
#208=DIRECTION('',(-0.923879532511287,0.38268343236509,0.));
#209=DIRECTION('',(-0.923879532511287,-0.38268343236509,0.));
#210=DIRECTION('',(-1.,1.19991352262749E-15,0.));
#211=DIRECTION('center_axis',(-1.,-3.70074341541719E-16,0.));
#212=DIRECTION('ref_axis',(0.,0.,1.));
#213=DIRECTION('',(-3.70074341541719E-16,1.,0.));
#214=DIRECTION('',(0.,0.,1.));
#215=DIRECTION('',(0.,0.,-1.));
#216=DIRECTION('center_axis',(-1.19991352262749E-15,1.,0.));
#217=DIRECTION('ref_axis',(0.,0.,1.));
#218=DIRECTION('',(1.,1.19991352262749E-15,0.));
#219=DIRECTION('',(0.,0.,1.));
#220=DIRECTION('center_axis',(0.38268343236509,0.923879532511287,0.));
#221=DIRECTION('ref_axis',(0.,0.,1.));
#222=DIRECTION('',(0.923879532511287,-0.38268343236509,0.));
#223=DIRECTION('',(0.,0.,1.));
#224=DIRECTION('center_axis',(-0.38268343236509,0.923879532511287,0.));
#225=DIRECTION('ref_axis',(0.,0.,1.));
#226=DIRECTION('',(0.923879532511287,0.38268343236509,0.));
#227=DIRECTION('',(0.,0.,1.));
#228=DIRECTION('center_axis',(1.19991352262749E-15,1.,0.));
#229=DIRECTION('ref_axis',(0.,0.,1.));
#230=DIRECTION('',(1.,-1.19991352262749E-15,0.));
#231=DIRECTION('',(0.,0.,1.));
#232=DIRECTION('center_axis',(1.,-3.70074341541719E-16,0.));
#233=DIRECTION('ref_axis',(0.,0.,-1.));
#234=DIRECTION('',(-3.70074341541719E-16,-1.,0.));
#235=DIRECTION('',(0.,0.,1.));
#236=DIRECTION('center_axis',(0.,-1.,0.));
#237=DIRECTION('ref_axis',(0.,0.,-1.));
#238=DIRECTION('',(-1.,0.,0.));
#239=DIRECTION('center_axis',(0.,0.,1.));
#240=DIRECTION('ref_axis',(1.,0.,0.));
#241=CARTESIAN_POINT('',(0.,0.,0.));
#242=CARTESIAN_POINT('Origin',(5.55111512312578E-16,9.81235388634738,-5.));
#243=CARTESIAN_POINT('',(37.5,0.,-5.));
#244=CARTESIAN_POINT('',(37.5,24.,-5.));
#245=CARTESIAN_POINT('',(37.5,0.,-5.));
#246=CARTESIAN_POINT('',(-37.5,0.,-5.));
#247=CARTESIAN_POINT('',(-37.5,0.,-5.));
#248=CARTESIAN_POINT('',(-37.5,24.,-5.));
#249=CARTESIAN_POINT('',(-37.5,24.,-5.));
#250=CARTESIAN_POINT('',(-33.7989898732233,24.,-5.));
#251=CARTESIAN_POINT('',(-33.7989898732233,24.,-5.));
#252=CARTESIAN_POINT('',(0.,10.,-5.));
#253=CARTESIAN_POINT('',(0.,10.,-5.));
#254=CARTESIAN_POINT('',(33.7989898732233,24.,-5.));
#255=CARTESIAN_POINT('',(33.7989898732233,24.,-5.));
#256=CARTESIAN_POINT('',(37.5,24.,-5.));
#257=CARTESIAN_POINT('Origin',(-37.5,0.,0.));
#258=CARTESIAN_POINT('',(-37.5,0.,5.));
#259=CARTESIAN_POINT('',(-37.5,24.,5.));
#260=CARTESIAN_POINT('',(-37.5,24.,5.));
#261=CARTESIAN_POINT('',(-37.5,24.,0.));
#262=CARTESIAN_POINT('',(-37.5,0.,0.));
#263=CARTESIAN_POINT('Origin',(-37.5,24.,0.));
#264=CARTESIAN_POINT('',(-33.7989898732233,24.,5.));
#265=CARTESIAN_POINT('',(-33.7989898732233,24.,5.));
#266=CARTESIAN_POINT('',(-33.7989898732233,24.,0.));
#267=CARTESIAN_POINT('Origin',(-33.7989898732233,24.,0.));
#268=CARTESIAN_POINT('',(0.,10.,5.));
#269=CARTESIAN_POINT('',(0.,10.,5.));
#270=CARTESIAN_POINT('',(0.,10.,0.));
#271=CARTESIAN_POINT('Origin',(0.,10.,0.));
#272=CARTESIAN_POINT('',(33.7989898732233,24.,5.));
#273=CARTESIAN_POINT('',(33.7989898732233,24.,5.));
#274=CARTESIAN_POINT('',(33.7989898732233,24.,0.));
#275=CARTESIAN_POINT('Origin',(33.7989898732233,24.,0.));
#276=CARTESIAN_POINT('',(37.5,24.,5.));
#277=CARTESIAN_POINT('',(37.5,24.,5.));
#278=CARTESIAN_POINT('',(37.5,24.,0.));
#279=CARTESIAN_POINT('Origin',(37.5,24.,0.));
#280=CARTESIAN_POINT('',(37.5,0.,5.));
#281=CARTESIAN_POINT('',(37.5,0.,5.));
#282=CARTESIAN_POINT('',(37.5,0.,0.));
#283=CARTESIAN_POINT('Origin',(37.5,0.,0.));
#284=CARTESIAN_POINT('',(-37.5,0.,5.));
#285=CARTESIAN_POINT('Origin',(-5.55111512312578E-16,9.81235388634738,5.));
#286=UNCERTAINTY_MEASURE_WITH_UNIT(LENGTH_MEASURE(0.01),#290,
'DISTANCE_ACCURACY_VALUE',
'Maximum model space distance between geometric entities at asserted c
onnectivities');
#287=UNCERTAINTY_MEASURE_WITH_UNIT(LENGTH_MEASURE(0.01),#290,
'DISTANCE_ACCURACY_VALUE',
'Maximum model space distance between geometric entities at asserted c
onnectivities');
#288=(
GEOMETRIC_REPRESENTATION_CONTEXT(3)
GLOBAL_UNCERTAINTY_ASSIGNED_CONTEXT((#286))
GLOBAL_UNIT_ASSIGNED_CONTEXT((#290,#292,#293))
REPRESENTATION_CONTEXT('','3D')
);
#289=(
GEOMETRIC_REPRESENTATION_CONTEXT(3)
GLOBAL_UNCERTAINTY_ASSIGNED_CONTEXT((#287))
GLOBAL_UNIT_ASSIGNED_CONTEXT((#290,#292,#293))
REPRESENTATION_CONTEXT('','3D')
);
#290=(
LENGTH_UNIT()
NAMED_UNIT(*)
SI_UNIT(.MILLI.,.METRE.)
);
#291=(
LENGTH_UNIT()
NAMED_UNIT(*)
SI_UNIT(.CENTI.,.METRE.)
);
#292=(
NAMED_UNIT(*)
PLANE_ANGLE_UNIT()
SI_UNIT($,.RADIAN.)
);
#293=(
NAMED_UNIT(*)
SI_UNIT($,.STERADIAN.)
SOLID_ANGLE_UNIT()
);
#294=SHAPE_DEFINITION_REPRESENTATION(#295,#296);
#295=PRODUCT_DEFINITION_SHAPE('',$,#298);
#296=SHAPE_REPRESENTATION('',(#190),#288);
#297=PRODUCT_DEFINITION_CONTEXT('part definition',#302,'design');
#298=PRODUCT_DEFINITION('WKZ-0031','E_3_01_10_18_00_WKZ-0031',#299,#297);
#299=PRODUCT_DEFINITION_FORMATION('',$,#304);
#300=PRODUCT_RELATED_PRODUCT_CATEGORY('E_3_01_10_18_00_WKZ-0031',
'E_3_01_10_18_00_WKZ-0031',(#304));
#301=APPLICATION_PROTOCOL_DEFINITION('international standard',
'automotive_design',2009,#302);
#302=APPLICATION_CONTEXT(
'Core Data for Automotive Mechanical Design Process');
#303=PRODUCT_CONTEXT('part definition',#302,'mechanical');
#304=PRODUCT('WKZ-0031','E_3_01_10_18_00_WKZ-0031',$,(#303));
#305=PRESENTATION_STYLE_ASSIGNMENT((#307));
#306=PRESENTATION_STYLE_ASSIGNMENT((#308));
#307=SURFACE_STYLE_USAGE(.BOTH.,#311);
#308=SURFACE_STYLE_USAGE(.BOTH.,#312);
#309=SURFACE_STYLE_RENDERING_WITH_PROPERTIES($,#319,(#310));
#310=SURFACE_STYLE_TRANSPARENT(0.);
#311=SURFACE_SIDE_STYLE('',(#313,#309));
#312=SURFACE_SIDE_STYLE('',(#314));
#313=SURFACE_STYLE_FILL_AREA(#315);
#314=SURFACE_STYLE_FILL_AREA(#316);
#315=FILL_AREA_STYLE('',(#317));
#316=FILL_AREA_STYLE('',(#318));
#317=FILL_AREA_STYLE_COLOUR('',#319);
#318=FILL_AREA_STYLE_COLOUR('',#320);
#319=COLOUR_RGB('',0.92156862745098,0.92156862745098,0.92156862745098);
#320=COLOUR_RGB('',0.16078431372549,0.16078431372549,0.16078431372549);
ENDSEC;
END-ISO-10303-21;
