ISO-10303-21;
HEADER;
/* Generated by software containing ST-Developer
 * from STEP Tools, Inc. (www.steptools.com) 
 */

FILE_DESCRIPTION(
/* description */ (''),
/* implementation_level */ '2;1');

FILE_NAME(
/* name */ 
'H:\\Eigene Dateien\\CAD Workspace Vault\\CAD\\E_3_Nocken\\E_3_01_Aufs
chwei\X\DFnocke\\10_Nut\\E_3_01_10_17_00_WKZ-0029.stp',
/* time_stamp */ '2024-06-07T13:16:33+02:00',
/* author */ ('DFischer'),
/* organization */ (''),
/* preprocessor_version */ 'ST-DEVELOPER v18.1',
/* originating_system */ 'Autodesk Inventor 2021',
/* authorisation */ '');

FILE_SCHEMA (('AUTOMOTIVE_DESIGN { 1 0 10303 214 3 1 1 }'));
ENDSEC;

DATA;
#10=MECHANICAL_DESIGN_GEOMETRIC_PRESENTATION_REPRESENTATION('',(#13),#321);
#11=SHAPE_REPRESENTATION_RELATIONSHIP('SRR','None',#328,#12);
#12=ADVANCED_BREP_SHAPE_REPRESENTATION('',(#14),#320);
#13=STYLED_ITEM('',(#337),#14);
#14=MANIFOLD_SOLID_BREP('Volumenk\X\F6rper1',#191);
#15=FACE_OUTER_BOUND('',#25,.T.);
#16=FACE_OUTER_BOUND('',#26,.T.);
#17=FACE_OUTER_BOUND('',#27,.T.);
#18=FACE_OUTER_BOUND('',#28,.T.);
#19=FACE_OUTER_BOUND('',#29,.T.);
#20=FACE_OUTER_BOUND('',#30,.T.);
#21=FACE_OUTER_BOUND('',#31,.T.);
#22=FACE_OUTER_BOUND('',#32,.T.);
#23=FACE_OUTER_BOUND('',#33,.T.);
#24=FACE_OUTER_BOUND('',#34,.T.);
#25=EDGE_LOOP('',(#123,#124,#125,#126,#127,#128,#129,#130));
#26=EDGE_LOOP('',(#131,#132,#133,#134));
#27=EDGE_LOOP('',(#135,#136,#137,#138));
#28=EDGE_LOOP('',(#139,#140,#141,#142));
#29=EDGE_LOOP('',(#143,#144,#145,#146));
#30=EDGE_LOOP('',(#147,#148,#149,#150));
#31=EDGE_LOOP('',(#151,#152,#153,#154));
#32=EDGE_LOOP('',(#155,#156,#157,#158));
#33=EDGE_LOOP('',(#159,#160,#161,#162));
#34=EDGE_LOOP('',(#163,#164,#165,#166,#167,#168,#169,#170));
#35=LINE('',#271,#59);
#36=LINE('',#273,#60);
#37=LINE('',#275,#61);
#38=LINE('',#277,#62);
#39=LINE('',#279,#63);
#40=LINE('',#281,#64);
#41=LINE('',#283,#65);
#42=LINE('',#284,#66);
#43=LINE('',#288,#67);
#44=LINE('',#289,#68);
#45=LINE('',#290,#69);
#46=LINE('',#293,#70);
#47=LINE('',#294,#71);
#48=LINE('',#297,#72);
#49=LINE('',#298,#73);
#50=LINE('',#301,#74);
#51=LINE('',#302,#75);
#52=LINE('',#305,#76);
#53=LINE('',#306,#77);
#54=LINE('',#309,#78);
#55=LINE('',#310,#79);
#56=LINE('',#313,#80);
#57=LINE('',#314,#81);
#58=LINE('',#316,#82);
#59=VECTOR('',#225,10.);
#60=VECTOR('',#226,10.);
#61=VECTOR('',#227,10.);
#62=VECTOR('',#228,10.);
#63=VECTOR('',#229,10.);
#64=VECTOR('',#230,10.);
#65=VECTOR('',#231,10.);
#66=VECTOR('',#232,10.);
#67=VECTOR('',#235,10.);
#68=VECTOR('',#236,10.);
#69=VECTOR('',#237,10.);
#70=VECTOR('',#240,10.);
#71=VECTOR('',#241,10.);
#72=VECTOR('',#244,10.);
#73=VECTOR('',#245,10.);
#74=VECTOR('',#248,10.);
#75=VECTOR('',#249,10.);
#76=VECTOR('',#252,10.);
#77=VECTOR('',#253,10.);
#78=VECTOR('',#256,10.);
#79=VECTOR('',#257,10.);
#80=VECTOR('',#260,10.);
#81=VECTOR('',#261,10.);
#82=VECTOR('',#264,10.);
#83=VERTEX_POINT('',#269);
#84=VERTEX_POINT('',#270);
#85=VERTEX_POINT('',#272);
#86=VERTEX_POINT('',#274);
#87=VERTEX_POINT('',#276);
#88=VERTEX_POINT('',#278);
#89=VERTEX_POINT('',#280);
#90=VERTEX_POINT('',#282);
#91=VERTEX_POINT('',#286);
#92=VERTEX_POINT('',#287);
#93=VERTEX_POINT('',#292);
#94=VERTEX_POINT('',#296);
#95=VERTEX_POINT('',#300);
#96=VERTEX_POINT('',#304);
#97=VERTEX_POINT('',#308);
#98=VERTEX_POINT('',#312);
#99=EDGE_CURVE('',#83,#84,#35,.T.);
#100=EDGE_CURVE('',#85,#83,#36,.T.);
#101=EDGE_CURVE('',#86,#85,#37,.T.);
#102=EDGE_CURVE('',#87,#86,#38,.T.);
#103=EDGE_CURVE('',#88,#87,#39,.T.);
#104=EDGE_CURVE('',#89,#88,#40,.T.);
#105=EDGE_CURVE('',#90,#89,#41,.T.);
#106=EDGE_CURVE('',#84,#90,#42,.T.);
#107=EDGE_CURVE('',#91,#92,#43,.T.);
#108=EDGE_CURVE('',#92,#86,#44,.T.);
#109=EDGE_CURVE('',#91,#85,#45,.T.);
#110=EDGE_CURVE('',#92,#93,#46,.T.);
#111=EDGE_CURVE('',#93,#87,#47,.T.);
#112=EDGE_CURVE('',#93,#94,#48,.T.);
#113=EDGE_CURVE('',#94,#88,#49,.T.);
#114=EDGE_CURVE('',#94,#95,#50,.T.);
#115=EDGE_CURVE('',#95,#89,#51,.T.);
#116=EDGE_CURVE('',#95,#96,#52,.T.);
#117=EDGE_CURVE('',#96,#90,#53,.T.);
#118=EDGE_CURVE('',#96,#97,#54,.T.);
#119=EDGE_CURVE('',#97,#84,#55,.T.);
#120=EDGE_CURVE('',#97,#98,#56,.T.);
#121=EDGE_CURVE('',#83,#98,#57,.T.);
#122=EDGE_CURVE('',#98,#91,#58,.T.);
#123=ORIENTED_EDGE('',*,*,#99,.F.);
#124=ORIENTED_EDGE('',*,*,#100,.F.);
#125=ORIENTED_EDGE('',*,*,#101,.F.);
#126=ORIENTED_EDGE('',*,*,#102,.F.);
#127=ORIENTED_EDGE('',*,*,#103,.F.);
#128=ORIENTED_EDGE('',*,*,#104,.F.);
#129=ORIENTED_EDGE('',*,*,#105,.F.);
#130=ORIENTED_EDGE('',*,*,#106,.F.);
#131=ORIENTED_EDGE('',*,*,#107,.T.);
#132=ORIENTED_EDGE('',*,*,#108,.T.);
#133=ORIENTED_EDGE('',*,*,#101,.T.);
#134=ORIENTED_EDGE('',*,*,#109,.F.);
#135=ORIENTED_EDGE('',*,*,#110,.T.);
#136=ORIENTED_EDGE('',*,*,#111,.T.);
#137=ORIENTED_EDGE('',*,*,#102,.T.);
#138=ORIENTED_EDGE('',*,*,#108,.F.);
#139=ORIENTED_EDGE('',*,*,#112,.T.);
#140=ORIENTED_EDGE('',*,*,#113,.T.);
#141=ORIENTED_EDGE('',*,*,#103,.T.);
#142=ORIENTED_EDGE('',*,*,#111,.F.);
#143=ORIENTED_EDGE('',*,*,#114,.T.);
#144=ORIENTED_EDGE('',*,*,#115,.T.);
#145=ORIENTED_EDGE('',*,*,#104,.T.);
#146=ORIENTED_EDGE('',*,*,#113,.F.);
#147=ORIENTED_EDGE('',*,*,#116,.T.);
#148=ORIENTED_EDGE('',*,*,#117,.T.);
#149=ORIENTED_EDGE('',*,*,#105,.T.);
#150=ORIENTED_EDGE('',*,*,#115,.F.);
#151=ORIENTED_EDGE('',*,*,#118,.T.);
#152=ORIENTED_EDGE('',*,*,#119,.T.);
#153=ORIENTED_EDGE('',*,*,#106,.T.);
#154=ORIENTED_EDGE('',*,*,#117,.F.);
#155=ORIENTED_EDGE('',*,*,#120,.T.);
#156=ORIENTED_EDGE('',*,*,#121,.F.);
#157=ORIENTED_EDGE('',*,*,#99,.T.);
#158=ORIENTED_EDGE('',*,*,#119,.F.);
#159=ORIENTED_EDGE('',*,*,#122,.T.);
#160=ORIENTED_EDGE('',*,*,#109,.T.);
#161=ORIENTED_EDGE('',*,*,#100,.T.);
#162=ORIENTED_EDGE('',*,*,#121,.T.);
#163=ORIENTED_EDGE('',*,*,#107,.F.);
#164=ORIENTED_EDGE('',*,*,#122,.F.);
#165=ORIENTED_EDGE('',*,*,#120,.F.);
#166=ORIENTED_EDGE('',*,*,#118,.F.);
#167=ORIENTED_EDGE('',*,*,#116,.F.);
#168=ORIENTED_EDGE('',*,*,#114,.F.);
#169=ORIENTED_EDGE('',*,*,#112,.F.);
#170=ORIENTED_EDGE('',*,*,#110,.F.);
#171=PLANE('',#211);
#172=PLANE('',#212);
#173=PLANE('',#213);
#174=PLANE('',#214);
#175=PLANE('',#215);
#176=PLANE('',#216);
#177=PLANE('',#217);
#178=PLANE('',#218);
#179=PLANE('',#219);
#180=PLANE('',#220);
#181=ADVANCED_FACE('',(#15),#171,.F.);
#182=ADVANCED_FACE('',(#16),#172,.T.);
#183=ADVANCED_FACE('',(#17),#173,.T.);
#184=ADVANCED_FACE('',(#18),#174,.T.);
#185=ADVANCED_FACE('',(#19),#175,.T.);
#186=ADVANCED_FACE('',(#20),#176,.T.);
#187=ADVANCED_FACE('',(#21),#177,.T.);
#188=ADVANCED_FACE('',(#22),#178,.T.);
#189=ADVANCED_FACE('',(#23),#179,.T.);
#190=ADVANCED_FACE('',(#24),#180,.T.);
#191=CLOSED_SHELL('',(#181,#182,#183,#184,#185,#186,#187,#188,#189,#190));
#192=DERIVED_UNIT_ELEMENT(#194,1.);
#193=DERIVED_UNIT_ELEMENT(#323,3.);
#194=(
MASS_UNIT()
NAMED_UNIT(*)
SI_UNIT($,.GRAM.)
);
#195=DERIVED_UNIT((#192,#193));
#196=MEASURE_REPRESENTATION_ITEM('density measure',
POSITIVE_RATIO_MEASURE(8.03),#195);
#197=PROPERTY_DEFINITION_REPRESENTATION(#202,#199);
#198=PROPERTY_DEFINITION_REPRESENTATION(#203,#200);
#199=REPRESENTATION('material name',(#201),#320);
#200=REPRESENTATION('density',(#196),#320);
#201=DESCRIPTIVE_REPRESENTATION_ITEM('1.4301','1.4301');
#202=PROPERTY_DEFINITION('material property','material name',#330);
#203=PROPERTY_DEFINITION('material property','density of part',#330);
#204=DATE_TIME_ROLE('creation_date');
#205=APPLIED_DATE_AND_TIME_ASSIGNMENT(#206,#204,(#330));
#206=DATE_AND_TIME(#207,#208);
#207=CALENDAR_DATE(2011,19,10);
#208=LOCAL_TIME(0,0,0.,#209);
#209=COORDINATED_UNIVERSAL_TIME_OFFSET(0,0,.BEHIND.);
#210=AXIS2_PLACEMENT_3D('placement',#267,#221,#222);
#211=AXIS2_PLACEMENT_3D('',#268,#223,#224);
#212=AXIS2_PLACEMENT_3D('',#285,#233,#234);
#213=AXIS2_PLACEMENT_3D('',#291,#238,#239);
#214=AXIS2_PLACEMENT_3D('',#295,#242,#243);
#215=AXIS2_PLACEMENT_3D('',#299,#246,#247);
#216=AXIS2_PLACEMENT_3D('',#303,#250,#251);
#217=AXIS2_PLACEMENT_3D('',#307,#254,#255);
#218=AXIS2_PLACEMENT_3D('',#311,#258,#259);
#219=AXIS2_PLACEMENT_3D('',#315,#262,#263);
#220=AXIS2_PLACEMENT_3D('',#317,#265,#266);
#221=DIRECTION('axis',(0.,0.,1.));
#222=DIRECTION('refdir',(1.,0.,0.));
#223=DIRECTION('center_axis',(0.,0.,1.));
#224=DIRECTION('ref_axis',(1.,0.,0.));
#225=DIRECTION('',(-1.,4.44089209850063E-16,0.));
#226=DIRECTION('',(0.,1.,0.));
#227=DIRECTION('',(1.,0.,0.));
#228=DIRECTION('',(0.,-1.,0.));
#229=DIRECTION('',(-1.,-4.44089209850063E-16,0.));
#230=DIRECTION('',(0.,1.,0.));
#231=DIRECTION('',(-1.,0.,0.));
#232=DIRECTION('',(0.,-1.,0.));
#233=DIRECTION('center_axis',(0.,-1.,0.));
#234=DIRECTION('ref_axis',(0.,0.,-1.));
#235=DIRECTION('',(-1.,0.,0.));
#236=DIRECTION('',(0.,0.,-1.));
#237=DIRECTION('',(0.,0.,-1.));
#238=DIRECTION('center_axis',(-1.,0.,0.));
#239=DIRECTION('ref_axis',(0.,0.,1.));
#240=DIRECTION('',(0.,1.,0.));
#241=DIRECTION('',(0.,0.,-1.));
#242=DIRECTION('center_axis',(-4.44089209850063E-16,1.,0.));
#243=DIRECTION('ref_axis',(0.,0.,1.));
#244=DIRECTION('',(1.,4.44089209850063E-16,0.));
#245=DIRECTION('',(0.,0.,-1.));
#246=DIRECTION('center_axis',(1.,0.,0.));
#247=DIRECTION('ref_axis',(0.,0.,-1.));
#248=DIRECTION('',(0.,-1.,0.));
#249=DIRECTION('',(0.,0.,-1.));
#250=DIRECTION('center_axis',(0.,1.,0.));
#251=DIRECTION('ref_axis',(0.,0.,1.));
#252=DIRECTION('',(1.,0.,0.));
#253=DIRECTION('',(0.,0.,-1.));
#254=DIRECTION('center_axis',(-1.,0.,0.));
#255=DIRECTION('ref_axis',(0.,0.,1.));
#256=DIRECTION('',(0.,1.,0.));
#257=DIRECTION('',(0.,0.,-1.));
#258=DIRECTION('center_axis',(4.44089209850063E-16,1.,0.));
#259=DIRECTION('ref_axis',(0.,0.,1.));
#260=DIRECTION('',(1.,-4.44089209850063E-16,0.));
#261=DIRECTION('',(0.,0.,1.));
#262=DIRECTION('center_axis',(1.,0.,0.));
#263=DIRECTION('ref_axis',(0.,0.,-1.));
#264=DIRECTION('',(0.,-1.,0.));
#265=DIRECTION('center_axis',(0.,0.,1.));
#266=DIRECTION('ref_axis',(1.,0.,0.));
#267=CARTESIAN_POINT('',(0.,0.,0.));
#268=CARTESIAN_POINT('Origin',(2.77555756156289E-16,7.87595419847328,-2.));
#269=CARTESIAN_POINT('',(16.,18.,-2.));
#270=CARTESIAN_POINT('',(6.,18.,-2.));
#271=CARTESIAN_POINT('',(6.,18.,-2.));
#272=CARTESIAN_POINT('',(16.,-2.22044604925031E-15,-2.));
#273=CARTESIAN_POINT('',(16.,18.,-2.));
#274=CARTESIAN_POINT('',(-16.,-2.22044604925031E-15,-2.));
#275=CARTESIAN_POINT('',(16.,-2.22044604925031E-15,-2.));
#276=CARTESIAN_POINT('',(-16.,18.,-2.));
#277=CARTESIAN_POINT('',(-16.,-2.22044604925031E-15,-2.));
#278=CARTESIAN_POINT('',(-6.,18.,-2.));
#279=CARTESIAN_POINT('',(-16.,18.,-2.));
#280=CARTESIAN_POINT('',(-6.,2.5,-2.));
#281=CARTESIAN_POINT('',(-6.,18.,-2.));
#282=CARTESIAN_POINT('',(6.,2.5,-2.));
#283=CARTESIAN_POINT('',(-6.,2.5,-2.));
#284=CARTESIAN_POINT('',(6.,2.5,-2.));
#285=CARTESIAN_POINT('Origin',(16.,-2.22044604925031E-15,0.));
#286=CARTESIAN_POINT('',(16.,-2.22044604925031E-15,2.));
#287=CARTESIAN_POINT('',(-16.,-2.22044604925031E-15,2.));
#288=CARTESIAN_POINT('',(16.,-2.22044604925031E-15,2.));
#289=CARTESIAN_POINT('',(-16.,-2.22044604925031E-15,0.));
#290=CARTESIAN_POINT('',(16.,-2.22044604925031E-15,0.));
#291=CARTESIAN_POINT('Origin',(-16.,-2.22044604925031E-15,0.));
#292=CARTESIAN_POINT('',(-16.,18.,2.));
#293=CARTESIAN_POINT('',(-16.,-2.22044604925031E-15,2.));
#294=CARTESIAN_POINT('',(-16.,18.,0.));
#295=CARTESIAN_POINT('Origin',(-16.,18.,0.));
#296=CARTESIAN_POINT('',(-6.,18.,2.));
#297=CARTESIAN_POINT('',(-16.,18.,2.));
#298=CARTESIAN_POINT('',(-6.,18.,0.));
#299=CARTESIAN_POINT('Origin',(-6.,18.,0.));
#300=CARTESIAN_POINT('',(-6.,2.5,2.));
#301=CARTESIAN_POINT('',(-6.,18.,2.));
#302=CARTESIAN_POINT('',(-6.,2.5,0.));
#303=CARTESIAN_POINT('Origin',(-6.,2.5,0.));
#304=CARTESIAN_POINT('',(6.,2.5,2.));
#305=CARTESIAN_POINT('',(-6.,2.5,2.));
#306=CARTESIAN_POINT('',(6.,2.5,0.));
#307=CARTESIAN_POINT('Origin',(6.,2.5,0.));
#308=CARTESIAN_POINT('',(6.,18.,2.));
#309=CARTESIAN_POINT('',(6.,2.5,2.));
#310=CARTESIAN_POINT('',(6.,18.,0.));
#311=CARTESIAN_POINT('Origin',(6.,18.,0.));
#312=CARTESIAN_POINT('',(16.,18.,2.));
#313=CARTESIAN_POINT('',(6.,18.,2.));
#314=CARTESIAN_POINT('',(16.,18.,0.));
#315=CARTESIAN_POINT('Origin',(16.,18.,0.));
#316=CARTESIAN_POINT('',(16.,18.,2.));
#317=CARTESIAN_POINT('Origin',(3.76173762507448E-16,7.87595419847328,2.));
#318=UNCERTAINTY_MEASURE_WITH_UNIT(LENGTH_MEASURE(0.01),#322,
'DISTANCE_ACCURACY_VALUE',
'Maximum model space distance between geometric entities at asserted c
onnectivities');
#319=UNCERTAINTY_MEASURE_WITH_UNIT(LENGTH_MEASURE(0.01),#322,
'DISTANCE_ACCURACY_VALUE',
'Maximum model space distance between geometric entities at asserted c
onnectivities');
#320=(
GEOMETRIC_REPRESENTATION_CONTEXT(3)
GLOBAL_UNCERTAINTY_ASSIGNED_CONTEXT((#318))
GLOBAL_UNIT_ASSIGNED_CONTEXT((#322,#324,#325))
REPRESENTATION_CONTEXT('','3D')
);
#321=(
GEOMETRIC_REPRESENTATION_CONTEXT(3)
GLOBAL_UNCERTAINTY_ASSIGNED_CONTEXT((#319))
GLOBAL_UNIT_ASSIGNED_CONTEXT((#322,#324,#325))
REPRESENTATION_CONTEXT('','3D')
);
#322=(
LENGTH_UNIT()
NAMED_UNIT(*)
SI_UNIT(.MILLI.,.METRE.)
);
#323=(
LENGTH_UNIT()
NAMED_UNIT(*)
SI_UNIT(.CENTI.,.METRE.)
);
#324=(
NAMED_UNIT(*)
PLANE_ANGLE_UNIT()
SI_UNIT($,.RADIAN.)
);
#325=(
NAMED_UNIT(*)
SI_UNIT($,.STERADIAN.)
SOLID_ANGLE_UNIT()
);
#326=SHAPE_DEFINITION_REPRESENTATION(#327,#328);
#327=PRODUCT_DEFINITION_SHAPE('',$,#330);
#328=SHAPE_REPRESENTATION('',(#210),#320);
#329=PRODUCT_DEFINITION_CONTEXT('part definition',#334,'design');
#330=PRODUCT_DEFINITION('WKZ-0029','E_3_01_10_17_00_WKZ-0029',#331,#329);
#331=PRODUCT_DEFINITION_FORMATION('',$,#336);
#332=PRODUCT_RELATED_PRODUCT_CATEGORY('E_3_01_10_17_00_WKZ-0029',
'E_3_01_10_17_00_WKZ-0029',(#336));
#333=APPLICATION_PROTOCOL_DEFINITION('international standard',
'automotive_design',2009,#334);
#334=APPLICATION_CONTEXT(
'Core Data for Automotive Mechanical Design Process');
#335=PRODUCT_CONTEXT('part definition',#334,'mechanical');
#336=PRODUCT('WKZ-0029','E_3_01_10_17_00_WKZ-0029',$,(#335));
#337=PRESENTATION_STYLE_ASSIGNMENT((#338));
#338=SURFACE_STYLE_USAGE(.BOTH.,#341);
#339=SURFACE_STYLE_RENDERING_WITH_PROPERTIES($,#345,(#340));
#340=SURFACE_STYLE_TRANSPARENT(0.);
#341=SURFACE_SIDE_STYLE('',(#342,#339));
#342=SURFACE_STYLE_FILL_AREA(#343);
#343=FILL_AREA_STYLE('',(#344));
#344=FILL_AREA_STYLE_COLOUR('',#345);
#345=COLOUR_RGB('',0.92156862745098,0.92156862745098,0.92156862745098);
ENDSEC;
END-ISO-10303-21;
