ISO-10303-21;
HEADER;
/* Generated by software containing ST-Developer
 * from STEP Tools, Inc. (www.steptools.com) 
 */

FILE_DESCRIPTION(
/* description */ (''),
/* implementation_level */ '2;1');

FILE_NAME(
/* name */ 'E_3_01_10_05_00_WKZ-0084.stp',
/* time_stamp */ '2025-11-24T11:22:33+01:00',
/* author */ ('d.fischer'),
/* organization */ (''),
/* preprocessor_version */ 'ST-DEVELOPER v20',
/* originating_system */ 'Autodesk Inventor 2025',
/* authorisation */ '');

FILE_SCHEMA (('AUTOMOTIVE_DESIGN { 1 0 10303 214 3 1 1 }'));
ENDSEC;

DATA;
#10=MECHANICAL_DESIGN_GEOMETRIC_PRESENTATION_REPRESENTATION('',(#14,#15),
#527);
#11=SHAPE_REPRESENTATION_RELATIONSHIP('SRR','None',#534,#12);
#12=ADVANCED_BREP_SHAPE_REPRESENTATION('',(#13),#526);
#13=MANIFOLD_SOLID_BREP('Volumenk\X\F6rper1',#314);
#14=STYLED_ITEM('',(#544),#312);
#15=STYLED_ITEM('',(#543),#13);
#16=CYLINDRICAL_SURFACE('',#345,5.);
#17=CYLINDRICAL_SURFACE('',#348,5.);
#18=FACE_OUTER_BOUND('',#34,.T.);
#19=FACE_OUTER_BOUND('',#35,.T.);
#20=FACE_OUTER_BOUND('',#36,.T.);
#21=FACE_OUTER_BOUND('',#37,.T.);
#22=FACE_OUTER_BOUND('',#38,.T.);
#23=FACE_OUTER_BOUND('',#39,.T.);
#24=FACE_OUTER_BOUND('',#40,.T.);
#25=FACE_OUTER_BOUND('',#41,.T.);
#26=FACE_OUTER_BOUND('',#42,.T.);
#27=FACE_OUTER_BOUND('',#43,.T.);
#28=FACE_OUTER_BOUND('',#44,.T.);
#29=FACE_OUTER_BOUND('',#45,.T.);
#30=FACE_OUTER_BOUND('',#46,.T.);
#31=FACE_OUTER_BOUND('',#47,.T.);
#32=FACE_OUTER_BOUND('',#48,.T.);
#33=FACE_OUTER_BOUND('',#49,.T.);
#34=EDGE_LOOP('',(#200,#201,#202,#203,#204,#205,#206,#207,#208,#209,#210,
#211,#212,#213));
#35=EDGE_LOOP('',(#214,#215,#216,#217));
#36=EDGE_LOOP('',(#218,#219,#220,#221));
#37=EDGE_LOOP('',(#222,#223,#224,#225));
#38=EDGE_LOOP('',(#226,#227,#228,#229));
#39=EDGE_LOOP('',(#230,#231,#232,#233));
#40=EDGE_LOOP('',(#234,#235,#236,#237));
#41=EDGE_LOOP('',(#238,#239,#240,#241));
#42=EDGE_LOOP('',(#242,#243,#244,#245));
#43=EDGE_LOOP('',(#246,#247,#248,#249));
#44=EDGE_LOOP('',(#250,#251,#252,#253));
#45=EDGE_LOOP('',(#254,#255,#256,#257));
#46=EDGE_LOOP('',(#258,#259,#260,#261));
#47=EDGE_LOOP('',(#262,#263,#264,#265));
#48=EDGE_LOOP('',(#266,#267,#268,#269));
#49=EDGE_LOOP('',(#270,#271,#272,#273,#274,#275,#276,#277,#278,#279,#280,
#281,#282,#283));
#50=CIRCLE('',#338,5.);
#51=CIRCLE('',#339,5.);
#52=CIRCLE('',#346,5.);
#53=CIRCLE('',#349,5.);
#54=LINE('',#441,#92);
#55=LINE('',#443,#93);
#56=LINE('',#445,#94);
#57=LINE('',#447,#95);
#58=LINE('',#449,#96);
#59=LINE('',#451,#97);
#60=LINE('',#453,#98);
#61=LINE('',#457,#99);
#62=LINE('',#461,#100);
#63=LINE('',#463,#101);
#64=LINE('',#465,#102);
#65=LINE('',#466,#103);
#66=LINE('',#470,#104);
#67=LINE('',#471,#105);
#68=LINE('',#472,#106);
#69=LINE('',#475,#107);
#70=LINE('',#476,#108);
#71=LINE('',#479,#109);
#72=LINE('',#480,#110);
#73=LINE('',#483,#111);
#74=LINE('',#484,#112);
#75=LINE('',#487,#113);
#76=LINE('',#488,#114);
#77=LINE('',#492,#115);
#78=LINE('',#495,#116);
#79=LINE('',#496,#117);
#80=LINE('',#500,#118);
#81=LINE('',#503,#119);
#82=LINE('',#504,#120);
#83=LINE('',#507,#121);
#84=LINE('',#508,#122);
#85=LINE('',#511,#123);
#86=LINE('',#512,#124);
#87=LINE('',#515,#125);
#88=LINE('',#516,#126);
#89=LINE('',#519,#127);
#90=LINE('',#520,#128);
#91=LINE('',#522,#129);
#92=VECTOR('',#361,10.);
#93=VECTOR('',#362,10.);
#94=VECTOR('',#363,10.);
#95=VECTOR('',#364,10.);
#96=VECTOR('',#365,10.);
#97=VECTOR('',#366,10.);
#98=VECTOR('',#367,10.);
#99=VECTOR('',#370,10.);
#100=VECTOR('',#373,10.);
#101=VECTOR('',#374,10.);
#102=VECTOR('',#375,10.);
#103=VECTOR('',#376,10.);
#104=VECTOR('',#379,10.);
#105=VECTOR('',#380,10.);
#106=VECTOR('',#381,10.);
#107=VECTOR('',#384,10.);
#108=VECTOR('',#385,10.);
#109=VECTOR('',#388,10.);
#110=VECTOR('',#389,10.);
#111=VECTOR('',#392,10.);
#112=VECTOR('',#393,10.);
#113=VECTOR('',#396,10.);
#114=VECTOR('',#397,10.);
#115=VECTOR('',#402,10.);
#116=VECTOR('',#405,10.);
#117=VECTOR('',#406,10.);
#118=VECTOR('',#411,10.);
#119=VECTOR('',#414,10.);
#120=VECTOR('',#415,10.);
#121=VECTOR('',#418,10.);
#122=VECTOR('',#419,10.);
#123=VECTOR('',#422,10.);
#124=VECTOR('',#423,10.);
#125=VECTOR('',#426,10.);
#126=VECTOR('',#427,10.);
#127=VECTOR('',#430,10.);
#128=VECTOR('',#431,10.);
#129=VECTOR('',#434,10.);
#130=VERTEX_POINT('',#439);
#131=VERTEX_POINT('',#440);
#132=VERTEX_POINT('',#442);
#133=VERTEX_POINT('',#444);
#134=VERTEX_POINT('',#446);
#135=VERTEX_POINT('',#448);
#136=VERTEX_POINT('',#450);
#137=VERTEX_POINT('',#452);
#138=VERTEX_POINT('',#454);
#139=VERTEX_POINT('',#456);
#140=VERTEX_POINT('',#458);
#141=VERTEX_POINT('',#460);
#142=VERTEX_POINT('',#462);
#143=VERTEX_POINT('',#464);
#144=VERTEX_POINT('',#468);
#145=VERTEX_POINT('',#469);
#146=VERTEX_POINT('',#474);
#147=VERTEX_POINT('',#478);
#148=VERTEX_POINT('',#482);
#149=VERTEX_POINT('',#486);
#150=VERTEX_POINT('',#490);
#151=VERTEX_POINT('',#494);
#152=VERTEX_POINT('',#498);
#153=VERTEX_POINT('',#502);
#154=VERTEX_POINT('',#506);
#155=VERTEX_POINT('',#510);
#156=VERTEX_POINT('',#514);
#157=VERTEX_POINT('',#518);
#158=EDGE_CURVE('',#130,#131,#54,.T.);
#159=EDGE_CURVE('',#132,#130,#55,.T.);
#160=EDGE_CURVE('',#133,#132,#56,.T.);
#161=EDGE_CURVE('',#134,#133,#57,.T.);
#162=EDGE_CURVE('',#135,#134,#58,.T.);
#163=EDGE_CURVE('',#136,#135,#59,.T.);
#164=EDGE_CURVE('',#137,#136,#60,.T.);
#165=EDGE_CURVE('',#138,#137,#50,.T.);
#166=EDGE_CURVE('',#139,#138,#61,.T.);
#167=EDGE_CURVE('',#140,#139,#51,.T.);
#168=EDGE_CURVE('',#141,#140,#62,.T.);
#169=EDGE_CURVE('',#142,#141,#63,.T.);
#170=EDGE_CURVE('',#143,#142,#64,.T.);
#171=EDGE_CURVE('',#131,#143,#65,.T.);
#172=EDGE_CURVE('',#144,#145,#66,.T.);
#173=EDGE_CURVE('',#145,#133,#67,.T.);
#174=EDGE_CURVE('',#144,#132,#68,.T.);
#175=EDGE_CURVE('',#145,#146,#69,.T.);
#176=EDGE_CURVE('',#146,#134,#70,.T.);
#177=EDGE_CURVE('',#146,#147,#71,.T.);
#178=EDGE_CURVE('',#147,#135,#72,.T.);
#179=EDGE_CURVE('',#147,#148,#73,.T.);
#180=EDGE_CURVE('',#148,#136,#74,.T.);
#181=EDGE_CURVE('',#148,#149,#75,.T.);
#182=EDGE_CURVE('',#149,#137,#76,.T.);
#183=EDGE_CURVE('',#149,#150,#52,.T.);
#184=EDGE_CURVE('',#150,#138,#77,.T.);
#185=EDGE_CURVE('',#150,#151,#78,.T.);
#186=EDGE_CURVE('',#151,#139,#79,.T.);
#187=EDGE_CURVE('',#151,#152,#53,.T.);
#188=EDGE_CURVE('',#152,#140,#80,.T.);
#189=EDGE_CURVE('',#152,#153,#81,.T.);
#190=EDGE_CURVE('',#153,#141,#82,.T.);
#191=EDGE_CURVE('',#153,#154,#83,.T.);
#192=EDGE_CURVE('',#154,#142,#84,.T.);
#193=EDGE_CURVE('',#154,#155,#85,.T.);
#194=EDGE_CURVE('',#155,#143,#86,.T.);
#195=EDGE_CURVE('',#155,#156,#87,.T.);
#196=EDGE_CURVE('',#156,#131,#88,.T.);
#197=EDGE_CURVE('',#156,#157,#89,.T.);
#198=EDGE_CURVE('',#130,#157,#90,.T.);
#199=EDGE_CURVE('',#157,#144,#91,.T.);
#200=ORIENTED_EDGE('',*,*,#158,.F.);
#201=ORIENTED_EDGE('',*,*,#159,.F.);
#202=ORIENTED_EDGE('',*,*,#160,.F.);
#203=ORIENTED_EDGE('',*,*,#161,.F.);
#204=ORIENTED_EDGE('',*,*,#162,.F.);
#205=ORIENTED_EDGE('',*,*,#163,.F.);
#206=ORIENTED_EDGE('',*,*,#164,.F.);
#207=ORIENTED_EDGE('',*,*,#165,.F.);
#208=ORIENTED_EDGE('',*,*,#166,.F.);
#209=ORIENTED_EDGE('',*,*,#167,.F.);
#210=ORIENTED_EDGE('',*,*,#168,.F.);
#211=ORIENTED_EDGE('',*,*,#169,.F.);
#212=ORIENTED_EDGE('',*,*,#170,.F.);
#213=ORIENTED_EDGE('',*,*,#171,.F.);
#214=ORIENTED_EDGE('',*,*,#172,.T.);
#215=ORIENTED_EDGE('',*,*,#173,.T.);
#216=ORIENTED_EDGE('',*,*,#160,.T.);
#217=ORIENTED_EDGE('',*,*,#174,.F.);
#218=ORIENTED_EDGE('',*,*,#175,.T.);
#219=ORIENTED_EDGE('',*,*,#176,.T.);
#220=ORIENTED_EDGE('',*,*,#161,.T.);
#221=ORIENTED_EDGE('',*,*,#173,.F.);
#222=ORIENTED_EDGE('',*,*,#177,.T.);
#223=ORIENTED_EDGE('',*,*,#178,.T.);
#224=ORIENTED_EDGE('',*,*,#162,.T.);
#225=ORIENTED_EDGE('',*,*,#176,.F.);
#226=ORIENTED_EDGE('',*,*,#179,.T.);
#227=ORIENTED_EDGE('',*,*,#180,.T.);
#228=ORIENTED_EDGE('',*,*,#163,.T.);
#229=ORIENTED_EDGE('',*,*,#178,.F.);
#230=ORIENTED_EDGE('',*,*,#181,.T.);
#231=ORIENTED_EDGE('',*,*,#182,.T.);
#232=ORIENTED_EDGE('',*,*,#164,.T.);
#233=ORIENTED_EDGE('',*,*,#180,.F.);
#234=ORIENTED_EDGE('',*,*,#183,.T.);
#235=ORIENTED_EDGE('',*,*,#184,.T.);
#236=ORIENTED_EDGE('',*,*,#165,.T.);
#237=ORIENTED_EDGE('',*,*,#182,.F.);
#238=ORIENTED_EDGE('',*,*,#185,.T.);
#239=ORIENTED_EDGE('',*,*,#186,.T.);
#240=ORIENTED_EDGE('',*,*,#166,.T.);
#241=ORIENTED_EDGE('',*,*,#184,.F.);
#242=ORIENTED_EDGE('',*,*,#187,.T.);
#243=ORIENTED_EDGE('',*,*,#188,.T.);
#244=ORIENTED_EDGE('',*,*,#167,.T.);
#245=ORIENTED_EDGE('',*,*,#186,.F.);
#246=ORIENTED_EDGE('',*,*,#189,.T.);
#247=ORIENTED_EDGE('',*,*,#190,.T.);
#248=ORIENTED_EDGE('',*,*,#168,.T.);
#249=ORIENTED_EDGE('',*,*,#188,.F.);
#250=ORIENTED_EDGE('',*,*,#191,.T.);
#251=ORIENTED_EDGE('',*,*,#192,.T.);
#252=ORIENTED_EDGE('',*,*,#169,.T.);
#253=ORIENTED_EDGE('',*,*,#190,.F.);
#254=ORIENTED_EDGE('',*,*,#193,.T.);
#255=ORIENTED_EDGE('',*,*,#194,.T.);
#256=ORIENTED_EDGE('',*,*,#170,.T.);
#257=ORIENTED_EDGE('',*,*,#192,.F.);
#258=ORIENTED_EDGE('',*,*,#195,.T.);
#259=ORIENTED_EDGE('',*,*,#196,.T.);
#260=ORIENTED_EDGE('',*,*,#171,.T.);
#261=ORIENTED_EDGE('',*,*,#194,.F.);
#262=ORIENTED_EDGE('',*,*,#197,.T.);
#263=ORIENTED_EDGE('',*,*,#198,.F.);
#264=ORIENTED_EDGE('',*,*,#158,.T.);
#265=ORIENTED_EDGE('',*,*,#196,.F.);
#266=ORIENTED_EDGE('',*,*,#199,.T.);
#267=ORIENTED_EDGE('',*,*,#174,.T.);
#268=ORIENTED_EDGE('',*,*,#159,.T.);
#269=ORIENTED_EDGE('',*,*,#198,.T.);
#270=ORIENTED_EDGE('',*,*,#172,.F.);
#271=ORIENTED_EDGE('',*,*,#199,.F.);
#272=ORIENTED_EDGE('',*,*,#197,.F.);
#273=ORIENTED_EDGE('',*,*,#195,.F.);
#274=ORIENTED_EDGE('',*,*,#193,.F.);
#275=ORIENTED_EDGE('',*,*,#191,.F.);
#276=ORIENTED_EDGE('',*,*,#189,.F.);
#277=ORIENTED_EDGE('',*,*,#187,.F.);
#278=ORIENTED_EDGE('',*,*,#185,.F.);
#279=ORIENTED_EDGE('',*,*,#183,.F.);
#280=ORIENTED_EDGE('',*,*,#181,.F.);
#281=ORIENTED_EDGE('',*,*,#179,.F.);
#282=ORIENTED_EDGE('',*,*,#177,.F.);
#283=ORIENTED_EDGE('',*,*,#175,.F.);
#284=PLANE('',#337);
#285=PLANE('',#340);
#286=PLANE('',#341);
#287=PLANE('',#342);
#288=PLANE('',#343);
#289=PLANE('',#344);
#290=PLANE('',#347);
#291=PLANE('',#350);
#292=PLANE('',#351);
#293=PLANE('',#352);
#294=PLANE('',#353);
#295=PLANE('',#354);
#296=PLANE('',#355);
#297=PLANE('',#356);
#298=ADVANCED_FACE('',(#18),#284,.F.);
#299=ADVANCED_FACE('',(#19),#285,.T.);
#300=ADVANCED_FACE('',(#20),#286,.T.);
#301=ADVANCED_FACE('',(#21),#287,.T.);
#302=ADVANCED_FACE('',(#22),#288,.T.);
#303=ADVANCED_FACE('',(#23),#289,.T.);
#304=ADVANCED_FACE('',(#24),#16,.F.);
#305=ADVANCED_FACE('',(#25),#290,.T.);
#306=ADVANCED_FACE('',(#26),#17,.F.);
#307=ADVANCED_FACE('',(#27),#291,.T.);
#308=ADVANCED_FACE('',(#28),#292,.T.);
#309=ADVANCED_FACE('',(#29),#293,.T.);
#310=ADVANCED_FACE('',(#30),#294,.T.);
#311=ADVANCED_FACE('',(#31),#295,.T.);
#312=ADVANCED_FACE('',(#32),#296,.T.);
#313=ADVANCED_FACE('',(#33),#297,.T.);
#314=CLOSED_SHELL('',(#298,#299,#300,#301,#302,#303,#304,#305,#306,#307,
#308,#309,#310,#311,#312,#313));
#315=DERIVED_UNIT_ELEMENT(#318,1.);
#316=DERIVED_UNIT_ELEMENT(#529,-3.);
#317=DIMENSIONAL_EXPONENTS(0.,1.,0.,0.,0.,0.,0.);
#318=(
CONVERSION_BASED_UNIT('gram',#320)
MASS_UNIT()
NAMED_UNIT(#317)
);
#319=(
MASS_UNIT()
NAMED_UNIT(*)
SI_UNIT(.KILO.,.GRAM.)
);
#320=MASS_MEASURE_WITH_UNIT(MASS_MEASURE(0.001),#319);
#321=DERIVED_UNIT((#315,#316));
#322=MEASURE_REPRESENTATION_ITEM('density measure',
POSITIVE_RATIO_MEASURE(8.03),#321);
#323=PROPERTY_DEFINITION_REPRESENTATION(#328,#325);
#324=PROPERTY_DEFINITION_REPRESENTATION(#329,#326);
#325=REPRESENTATION('material name',(#327),#526);
#326=REPRESENTATION('density',(#322),#526);
#327=DESCRIPTIVE_REPRESENTATION_ITEM('1.4301','1.4301');
#328=PROPERTY_DEFINITION('material property','material name',#536);
#329=PROPERTY_DEFINITION('material property','density of part',#536);
#330=DATE_TIME_ROLE('creation_date');
#331=APPLIED_DATE_AND_TIME_ASSIGNMENT(#332,#330,(#536));
#332=DATE_AND_TIME(#333,#334);
#333=CALENDAR_DATE(2011,26,10);
#334=LOCAL_TIME(0,0,0.,#335);
#335=COORDINATED_UNIVERSAL_TIME_OFFSET(0,0,.BEHIND.);
#336=AXIS2_PLACEMENT_3D('',#437,#357,#358);
#337=AXIS2_PLACEMENT_3D('',#438,#359,#360);
#338=AXIS2_PLACEMENT_3D('',#455,#368,#369);
#339=AXIS2_PLACEMENT_3D('',#459,#371,#372);
#340=AXIS2_PLACEMENT_3D('',#467,#377,#378);
#341=AXIS2_PLACEMENT_3D('',#473,#382,#383);
#342=AXIS2_PLACEMENT_3D('',#477,#386,#387);
#343=AXIS2_PLACEMENT_3D('',#481,#390,#391);
#344=AXIS2_PLACEMENT_3D('',#485,#394,#395);
#345=AXIS2_PLACEMENT_3D('',#489,#398,#399);
#346=AXIS2_PLACEMENT_3D('',#491,#400,#401);
#347=AXIS2_PLACEMENT_3D('',#493,#403,#404);
#348=AXIS2_PLACEMENT_3D('',#497,#407,#408);
#349=AXIS2_PLACEMENT_3D('',#499,#409,#410);
#350=AXIS2_PLACEMENT_3D('',#501,#412,#413);
#351=AXIS2_PLACEMENT_3D('',#505,#416,#417);
#352=AXIS2_PLACEMENT_3D('',#509,#420,#421);
#353=AXIS2_PLACEMENT_3D('',#513,#424,#425);
#354=AXIS2_PLACEMENT_3D('',#517,#428,#429);
#355=AXIS2_PLACEMENT_3D('',#521,#432,#433);
#356=AXIS2_PLACEMENT_3D('',#523,#435,#436);
#357=DIRECTION('axis',(0.,0.,1.));
#358=DIRECTION('refdir',(1.,0.,0.));
#359=DIRECTION('center_axis',(0.,0.,1.));
#360=DIRECTION('ref_axis',(1.,0.,0.));
#361=DIRECTION('',(0.,1.,0.));
#362=DIRECTION('',(1.,0.,0.));
#363=DIRECTION('',(0.,-1.,0.));
#364=DIRECTION('',(0.923076923076923,-0.384615384615385,0.));
#365=DIRECTION('',(0.,-1.,0.));
#366=DIRECTION('',(-1.,0.,0.));
#367=DIRECTION('',(-0.573576436351046,0.819152044288992,0.));
#368=DIRECTION('center_axis',(0.,0.,-1.));
#369=DIRECTION('ref_axis',(-0.819152044288992,-0.573576436351046,0.));
#370=DIRECTION('',(-1.,0.,0.));
#371=DIRECTION('center_axis',(0.,0.,-1.));
#372=DIRECTION('ref_axis',(-4.44089209850063E-16,-1.,0.));
#373=DIRECTION('',(-0.573576436351046,-0.819152044288992,0.));
#374=DIRECTION('',(-1.,0.,0.));
#375=DIRECTION('',(0.,1.,0.));
#376=DIRECTION('',(0.923076923076923,0.384615384615385,0.));
#377=DIRECTION('center_axis',(-1.,0.,0.));
#378=DIRECTION('ref_axis',(0.,0.,1.));
#379=DIRECTION('',(0.,1.,0.));
#380=DIRECTION('',(0.,0.,-1.));
#381=DIRECTION('',(0.,0.,-1.));
#382=DIRECTION('center_axis',(-0.384615384615385,-0.923076923076923,0.));
#383=DIRECTION('ref_axis',(0.,0.,-1.));
#384=DIRECTION('',(-0.923076923076923,0.384615384615385,0.));
#385=DIRECTION('',(0.,0.,-1.));
#386=DIRECTION('center_axis',(-1.,0.,0.));
#387=DIRECTION('ref_axis',(0.,0.,1.));
#388=DIRECTION('',(0.,1.,0.));
#389=DIRECTION('',(0.,0.,-1.));
#390=DIRECTION('center_axis',(0.,1.,0.));
#391=DIRECTION('ref_axis',(0.,0.,1.));
#392=DIRECTION('',(1.,0.,0.));
#393=DIRECTION('',(0.,0.,-1.));
#394=DIRECTION('center_axis',(0.819152044288992,0.573576436351046,0.));
#395=DIRECTION('ref_axis',(0.,0.,-1.));
#396=DIRECTION('',(0.573576436351046,-0.819152044288992,0.));
#397=DIRECTION('',(0.,0.,-1.));
#398=DIRECTION('center_axis',(0.,0.,1.));
#399=DIRECTION('ref_axis',(-0.819152044288992,-0.573576436351046,0.));
#400=DIRECTION('center_axis',(0.,0.,1.));
#401=DIRECTION('ref_axis',(-0.819152044288992,-0.573576436351046,0.));
#402=DIRECTION('',(0.,0.,-1.));
#403=DIRECTION('center_axis',(0.,1.,0.));
#404=DIRECTION('ref_axis',(0.,0.,1.));
#405=DIRECTION('',(1.,0.,0.));
#406=DIRECTION('',(0.,0.,-1.));
#407=DIRECTION('center_axis',(0.,0.,1.));
#408=DIRECTION('ref_axis',(-4.44089209850063E-16,-1.,0.));
#409=DIRECTION('center_axis',(0.,0.,1.));
#410=DIRECTION('ref_axis',(-4.44089209850063E-16,-1.,0.));
#411=DIRECTION('',(0.,0.,-1.));
#412=DIRECTION('center_axis',(-0.819152044288992,0.573576436351046,0.));
#413=DIRECTION('ref_axis',(0.,0.,1.));
#414=DIRECTION('',(0.573576436351046,0.819152044288992,0.));
#415=DIRECTION('',(0.,0.,-1.));
#416=DIRECTION('center_axis',(0.,1.,0.));
#417=DIRECTION('ref_axis',(0.,0.,1.));
#418=DIRECTION('',(1.,0.,0.));
#419=DIRECTION('',(0.,0.,-1.));
#420=DIRECTION('center_axis',(1.,0.,0.));
#421=DIRECTION('ref_axis',(0.,0.,-1.));
#422=DIRECTION('',(0.,-1.,0.));
#423=DIRECTION('',(0.,0.,-1.));
#424=DIRECTION('center_axis',(0.384615384615385,-0.923076923076923,0.));
#425=DIRECTION('ref_axis',(0.,0.,-1.));
#426=DIRECTION('',(-0.923076923076923,-0.384615384615385,0.));
#427=DIRECTION('',(0.,0.,-1.));
#428=DIRECTION('center_axis',(1.,0.,0.));
#429=DIRECTION('ref_axis',(0.,0.,-1.));
#430=DIRECTION('',(0.,-1.,0.));
#431=DIRECTION('',(0.,0.,1.));
#432=DIRECTION('center_axis',(0.,-1.,0.));
#433=DIRECTION('ref_axis',(0.,0.,-1.));
#434=DIRECTION('',(-1.,0.,0.));
#435=DIRECTION('center_axis',(0.,0.,1.));
#436=DIRECTION('ref_axis',(1.,0.,0.));
#437=CARTESIAN_POINT('',(0.,0.,0.));
#438=CARTESIAN_POINT('Origin',(-1.17093834628434E-15,7.46807855519578,-7.5));
#439=CARTESIAN_POINT('',(5.,-4.93038065763132E-31,-7.5));
#440=CARTESIAN_POINT('',(5.,1.,-7.5));
#441=CARTESIAN_POINT('',(5.,1.,-7.5));
#442=CARTESIAN_POINT('',(-5.,-4.93038065763132E-31,-7.5));
#443=CARTESIAN_POINT('',(5.,-4.93038065763132E-31,-7.5));
#444=CARTESIAN_POINT('',(-5.,1.,-7.5));
#445=CARTESIAN_POINT('',(-5.,-4.93038065763132E-31,-7.5));
#446=CARTESIAN_POINT('',(-17.,6.,-7.5));
#447=CARTESIAN_POINT('',(-5.,1.,-7.5));
#448=CARTESIAN_POINT('',(-17.,15.,-7.5));
#449=CARTESIAN_POINT('',(-17.,6.,-7.5));
#450=CARTESIAN_POINT('',(-11.5,15.,-7.5));
#451=CARTESIAN_POINT('',(-17.,15.,-7.5));
#452=CARTESIAN_POINT('',(-6.69105712479884,8.13211781824477,-7.5));
#453=CARTESIAN_POINT('',(-11.5,15.,-7.5));
#454=CARTESIAN_POINT('',(-2.59529690335388,6.,-7.5));
#455=CARTESIAN_POINT('Origin',(-2.59529690335388,11.,-7.5));
#456=CARTESIAN_POINT('',(2.59529690335389,6.,-7.5));
#457=CARTESIAN_POINT('',(-2.59529690335388,6.,-7.5));
#458=CARTESIAN_POINT('',(6.69105712479884,8.13211781824477,-7.5));
#459=CARTESIAN_POINT('Origin',(2.59529690335389,11.,-7.5));
#460=CARTESIAN_POINT('',(11.5,15.,-7.5));
#461=CARTESIAN_POINT('',(6.69105712479884,8.13211781824477,-7.5));
#462=CARTESIAN_POINT('',(17.,15.,-7.5));
#463=CARTESIAN_POINT('',(11.5,15.,-7.5));
#464=CARTESIAN_POINT('',(17.,6.,-7.5));
#465=CARTESIAN_POINT('',(17.,15.,-7.5));
#466=CARTESIAN_POINT('',(17.,6.,-7.5));
#467=CARTESIAN_POINT('Origin',(-5.,-4.93038065763132E-31,0.));
#468=CARTESIAN_POINT('',(-5.,-4.93038065763132E-31,7.5));
#469=CARTESIAN_POINT('',(-5.,1.,7.5));
#470=CARTESIAN_POINT('',(-5.,-4.93038065763132E-31,7.5));
#471=CARTESIAN_POINT('',(-5.,1.,0.));
#472=CARTESIAN_POINT('',(-5.,-4.93038065763132E-31,0.));
#473=CARTESIAN_POINT('Origin',(-5.,1.,0.));
#474=CARTESIAN_POINT('',(-17.,6.,7.5));
#475=CARTESIAN_POINT('',(-5.,1.,7.5));
#476=CARTESIAN_POINT('',(-17.,6.,0.));
#477=CARTESIAN_POINT('Origin',(-17.,6.,0.));
#478=CARTESIAN_POINT('',(-17.,15.,7.5));
#479=CARTESIAN_POINT('',(-17.,6.,7.5));
#480=CARTESIAN_POINT('',(-17.,15.,0.));
#481=CARTESIAN_POINT('Origin',(-17.,15.,0.));
#482=CARTESIAN_POINT('',(-11.5,15.,7.5));
#483=CARTESIAN_POINT('',(-17.,15.,7.5));
#484=CARTESIAN_POINT('',(-11.5,15.,0.));
#485=CARTESIAN_POINT('Origin',(-11.5,15.,0.));
#486=CARTESIAN_POINT('',(-6.69105712479884,8.13211781824477,7.5));
#487=CARTESIAN_POINT('',(-11.5,15.,7.5));
#488=CARTESIAN_POINT('',(-6.69105712479884,8.13211781824477,0.));
#489=CARTESIAN_POINT('Origin',(-2.59529690335388,11.,0.));
#490=CARTESIAN_POINT('',(-2.59529690335388,6.,7.5));
#491=CARTESIAN_POINT('Origin',(-2.59529690335388,11.,7.5));
#492=CARTESIAN_POINT('',(-2.59529690335388,6.,0.));
#493=CARTESIAN_POINT('Origin',(-2.59529690335388,6.,0.));
#494=CARTESIAN_POINT('',(2.59529690335389,6.,7.5));
#495=CARTESIAN_POINT('',(-2.59529690335388,6.,7.5));
#496=CARTESIAN_POINT('',(2.59529690335389,6.,0.));
#497=CARTESIAN_POINT('Origin',(2.59529690335389,11.,0.));
#498=CARTESIAN_POINT('',(6.69105712479884,8.13211781824477,7.5));
#499=CARTESIAN_POINT('Origin',(2.59529690335389,11.,7.5));
#500=CARTESIAN_POINT('',(6.69105712479884,8.13211781824477,0.));
#501=CARTESIAN_POINT('Origin',(6.69105712479884,8.13211781824477,0.));
#502=CARTESIAN_POINT('',(11.5,15.,7.5));
#503=CARTESIAN_POINT('',(6.69105712479884,8.13211781824477,7.5));
#504=CARTESIAN_POINT('',(11.5,15.,0.));
#505=CARTESIAN_POINT('Origin',(11.5,15.,0.));
#506=CARTESIAN_POINT('',(17.,15.,7.5));
#507=CARTESIAN_POINT('',(11.5,15.,7.5));
#508=CARTESIAN_POINT('',(17.,15.,0.));
#509=CARTESIAN_POINT('Origin',(17.,15.,0.));
#510=CARTESIAN_POINT('',(17.,6.,7.5));
#511=CARTESIAN_POINT('',(17.,15.,7.5));
#512=CARTESIAN_POINT('',(17.,6.,0.));
#513=CARTESIAN_POINT('Origin',(17.,6.,0.));
#514=CARTESIAN_POINT('',(5.,1.,7.5));
#515=CARTESIAN_POINT('',(17.,6.,7.5));
#516=CARTESIAN_POINT('',(5.,1.,0.));
#517=CARTESIAN_POINT('Origin',(5.,1.,0.));
#518=CARTESIAN_POINT('',(5.,-4.93038065763132E-31,7.5));
#519=CARTESIAN_POINT('',(5.,1.,7.5));
#520=CARTESIAN_POINT('',(5.,-4.93038065763132E-31,0.));
#521=CARTESIAN_POINT('Origin',(5.,-4.93038065763132E-31,0.));
#522=CARTESIAN_POINT('',(5.,-4.93038065763132E-31,7.5));
#523=CARTESIAN_POINT('Origin',(-4.9439619065339E-16,7.46807855519578,7.5));
#524=UNCERTAINTY_MEASURE_WITH_UNIT(LENGTH_MEASURE(0.01),#528,
'DISTANCE_ACCURACY_VALUE',
'Maximum model space distance between geometric entities at asserted c
onnectivities');
#525=UNCERTAINTY_MEASURE_WITH_UNIT(LENGTH_MEASURE(0.01),#528,
'DISTANCE_ACCURACY_VALUE',
'Maximum model space distance between geometric entities at asserted c
onnectivities');
#526=(
GEOMETRIC_REPRESENTATION_CONTEXT(3)
GLOBAL_UNCERTAINTY_ASSIGNED_CONTEXT((#524))
GLOBAL_UNIT_ASSIGNED_CONTEXT((#528,#530,#531))
REPRESENTATION_CONTEXT('','3D')
);
#527=(
GEOMETRIC_REPRESENTATION_CONTEXT(3)
GLOBAL_UNCERTAINTY_ASSIGNED_CONTEXT((#525))
GLOBAL_UNIT_ASSIGNED_CONTEXT((#528,#530,#531))
REPRESENTATION_CONTEXT('','3D')
);
#528=(
LENGTH_UNIT()
NAMED_UNIT(*)
SI_UNIT(.MILLI.,.METRE.)
);
#529=(
LENGTH_UNIT()
NAMED_UNIT(*)
SI_UNIT(.CENTI.,.METRE.)
);
#530=(
NAMED_UNIT(*)
PLANE_ANGLE_UNIT()
SI_UNIT($,.RADIAN.)
);
#531=(
NAMED_UNIT(*)
SI_UNIT($,.STERADIAN.)
SOLID_ANGLE_UNIT()
);
#532=SHAPE_DEFINITION_REPRESENTATION(#533,#534);
#533=PRODUCT_DEFINITION_SHAPE('',$,#536);
#534=SHAPE_REPRESENTATION('',(#336),#526);
#535=PRODUCT_DEFINITION_CONTEXT('part definition',#540,'design');
#536=PRODUCT_DEFINITION('WKZ-0084','E_3_01_10_05_00_WKZ-0084',#537,#535);
#537=PRODUCT_DEFINITION_FORMATION('',$,#542);
#538=PRODUCT_RELATED_PRODUCT_CATEGORY('E_3_01_10_05_00_WKZ-0084',
'E_3_01_10_05_00_WKZ-0084',(#542));
#539=APPLICATION_PROTOCOL_DEFINITION('international standard',
'automotive_design',2009,#540);
#540=APPLICATION_CONTEXT(
'Core Data for Automotive Mechanical Design Process');
#541=PRODUCT_CONTEXT('part definition',#540,'mechanical');
#542=PRODUCT('WKZ-0084','E_3_01_10_05_00_WKZ-0084',$,(#541));
#543=PRESENTATION_STYLE_ASSIGNMENT((#545));
#544=PRESENTATION_STYLE_ASSIGNMENT((#546));
#545=SURFACE_STYLE_USAGE(.BOTH.,#549);
#546=SURFACE_STYLE_USAGE(.BOTH.,#550);
#547=SURFACE_STYLE_RENDERING_WITH_PROPERTIES($,#557,(#548));
#548=SURFACE_STYLE_TRANSPARENT(0.);
#549=SURFACE_SIDE_STYLE('',(#551,#547));
#550=SURFACE_SIDE_STYLE('',(#552));
#551=SURFACE_STYLE_FILL_AREA(#553);
#552=SURFACE_STYLE_FILL_AREA(#554);
#553=FILL_AREA_STYLE('',(#555));
#554=FILL_AREA_STYLE('',(#556));
#555=FILL_AREA_STYLE_COLOUR('',#557);
#556=FILL_AREA_STYLE_COLOUR('',#558);
#557=COLOUR_RGB('',0.92156862745098,0.92156862745098,0.92156862745098);
#558=COLOUR_RGB('',0.16078431372549,0.16078431372549,0.16078431372549);
ENDSEC;
END-ISO-10303-21;
