ISO-10303-21;
HEADER;
/* Generated by software containing ST-Developer
 * from STEP Tools, Inc. (www.steptools.com) 
 */

FILE_DESCRIPTION(
/* description */ (''),
/* implementation_level */ '2;1');

FILE_NAME(
/* name */ 'E_3_01_10_01_00_WKZ-0067.stp',
/* time_stamp */ '2025-11-24T11:08:53+01:00',
/* author */ ('d.fischer'),
/* organization */ (''),
/* preprocessor_version */ 'ST-DEVELOPER v20',
/* originating_system */ 'Autodesk Inventor 2025',
/* authorisation */ '');

FILE_SCHEMA (('AUTOMOTIVE_DESIGN { 1 0 10303 214 3 1 1 }'));
ENDSEC;

DATA;
#10=MECHANICAL_DESIGN_GEOMETRIC_PRESENTATION_REPRESENTATION('',(#14,#15),
#327);
#11=SHAPE_REPRESENTATION_RELATIONSHIP('SRR','None',#334,#12);
#12=ADVANCED_BREP_SHAPE_REPRESENTATION('',(#13),#326);
#13=MANIFOLD_SOLID_BREP('Volumenk\X\F6rper1',#190);
#14=STYLED_ITEM('',(#344),#188);
#15=STYLED_ITEM('',(#343),#13);
#16=CYLINDRICAL_SURFACE('',#218,5.);
#17=FACE_OUTER_BOUND('',#27,.T.);
#18=FACE_OUTER_BOUND('',#28,.T.);
#19=FACE_OUTER_BOUND('',#29,.T.);
#20=FACE_OUTER_BOUND('',#30,.T.);
#21=FACE_OUTER_BOUND('',#31,.T.);
#22=FACE_OUTER_BOUND('',#32,.T.);
#23=FACE_OUTER_BOUND('',#33,.T.);
#24=FACE_OUTER_BOUND('',#34,.T.);
#25=FACE_OUTER_BOUND('',#35,.T.);
#26=FACE_OUTER_BOUND('',#36,.T.);
#27=EDGE_LOOP('',(#123,#124,#125,#126,#127,#128,#129,#130));
#28=EDGE_LOOP('',(#131,#132,#133,#134));
#29=EDGE_LOOP('',(#135,#136,#137,#138));
#30=EDGE_LOOP('',(#139,#140,#141,#142));
#31=EDGE_LOOP('',(#143,#144,#145,#146));
#32=EDGE_LOOP('',(#147,#148,#149,#150));
#33=EDGE_LOOP('',(#151,#152,#153,#154));
#34=EDGE_LOOP('',(#155,#156,#157,#158));
#35=EDGE_LOOP('',(#159,#160,#161,#162));
#36=EDGE_LOOP('',(#163,#164,#165,#166,#167,#168,#169,#170));
#37=CIRCLE('',#214,5.);
#38=CIRCLE('',#219,5.);
#39=LINE('',#277,#61);
#40=LINE('',#279,#62);
#41=LINE('',#281,#63);
#42=LINE('',#283,#64);
#43=LINE('',#285,#65);
#44=LINE('',#289,#66);
#45=LINE('',#290,#67);
#46=LINE('',#294,#68);
#47=LINE('',#295,#69);
#48=LINE('',#296,#70);
#49=LINE('',#299,#71);
#50=LINE('',#300,#72);
#51=LINE('',#303,#73);
#52=LINE('',#304,#74);
#53=LINE('',#308,#75);
#54=LINE('',#311,#76);
#55=LINE('',#312,#77);
#56=LINE('',#315,#78);
#57=LINE('',#316,#79);
#58=LINE('',#319,#80);
#59=LINE('',#320,#81);
#60=LINE('',#322,#82);
#61=VECTOR('',#229,10.);
#62=VECTOR('',#230,10.);
#63=VECTOR('',#231,10.);
#64=VECTOR('',#232,10.);
#65=VECTOR('',#233,10.);
#66=VECTOR('',#236,10.);
#67=VECTOR('',#237,10.);
#68=VECTOR('',#240,10.);
#69=VECTOR('',#241,10.);
#70=VECTOR('',#242,10.);
#71=VECTOR('',#245,10.);
#72=VECTOR('',#246,10.);
#73=VECTOR('',#249,10.);
#74=VECTOR('',#250,10.);
#75=VECTOR('',#255,10.);
#76=VECTOR('',#258,10.);
#77=VECTOR('',#259,10.);
#78=VECTOR('',#262,10.);
#79=VECTOR('',#263,10.);
#80=VECTOR('',#266,10.);
#81=VECTOR('',#267,10.);
#82=VECTOR('',#270,10.);
#83=VERTEX_POINT('',#275);
#84=VERTEX_POINT('',#276);
#85=VERTEX_POINT('',#278);
#86=VERTEX_POINT('',#280);
#87=VERTEX_POINT('',#282);
#88=VERTEX_POINT('',#284);
#89=VERTEX_POINT('',#286);
#90=VERTEX_POINT('',#288);
#91=VERTEX_POINT('',#292);
#92=VERTEX_POINT('',#293);
#93=VERTEX_POINT('',#298);
#94=VERTEX_POINT('',#302);
#95=VERTEX_POINT('',#306);
#96=VERTEX_POINT('',#310);
#97=VERTEX_POINT('',#314);
#98=VERTEX_POINT('',#318);
#99=EDGE_CURVE('',#83,#84,#39,.T.);
#100=EDGE_CURVE('',#85,#83,#40,.T.);
#101=EDGE_CURVE('',#86,#85,#41,.T.);
#102=EDGE_CURVE('',#87,#86,#42,.T.);
#103=EDGE_CURVE('',#88,#87,#43,.T.);
#104=EDGE_CURVE('',#89,#88,#37,.T.);
#105=EDGE_CURVE('',#90,#89,#44,.T.);
#106=EDGE_CURVE('',#84,#90,#45,.T.);
#107=EDGE_CURVE('',#91,#92,#46,.T.);
#108=EDGE_CURVE('',#86,#92,#47,.T.);
#109=EDGE_CURVE('',#91,#85,#48,.T.);
#110=EDGE_CURVE('',#92,#93,#49,.T.);
#111=EDGE_CURVE('',#87,#93,#50,.T.);
#112=EDGE_CURVE('',#93,#94,#51,.T.);
#113=EDGE_CURVE('',#88,#94,#52,.T.);
#114=EDGE_CURVE('',#94,#95,#38,.T.);
#115=EDGE_CURVE('',#89,#95,#53,.T.);
#116=EDGE_CURVE('',#95,#96,#54,.T.);
#117=EDGE_CURVE('',#90,#96,#55,.T.);
#118=EDGE_CURVE('',#96,#97,#56,.T.);
#119=EDGE_CURVE('',#84,#97,#57,.T.);
#120=EDGE_CURVE('',#97,#98,#58,.T.);
#121=EDGE_CURVE('',#83,#98,#59,.T.);
#122=EDGE_CURVE('',#98,#91,#60,.T.);
#123=ORIENTED_EDGE('',*,*,#99,.F.);
#124=ORIENTED_EDGE('',*,*,#100,.F.);
#125=ORIENTED_EDGE('',*,*,#101,.F.);
#126=ORIENTED_EDGE('',*,*,#102,.F.);
#127=ORIENTED_EDGE('',*,*,#103,.F.);
#128=ORIENTED_EDGE('',*,*,#104,.F.);
#129=ORIENTED_EDGE('',*,*,#105,.F.);
#130=ORIENTED_EDGE('',*,*,#106,.F.);
#131=ORIENTED_EDGE('',*,*,#107,.T.);
#132=ORIENTED_EDGE('',*,*,#108,.F.);
#133=ORIENTED_EDGE('',*,*,#101,.T.);
#134=ORIENTED_EDGE('',*,*,#109,.F.);
#135=ORIENTED_EDGE('',*,*,#110,.T.);
#136=ORIENTED_EDGE('',*,*,#111,.F.);
#137=ORIENTED_EDGE('',*,*,#102,.T.);
#138=ORIENTED_EDGE('',*,*,#108,.T.);
#139=ORIENTED_EDGE('',*,*,#112,.T.);
#140=ORIENTED_EDGE('',*,*,#113,.F.);
#141=ORIENTED_EDGE('',*,*,#103,.T.);
#142=ORIENTED_EDGE('',*,*,#111,.T.);
#143=ORIENTED_EDGE('',*,*,#114,.T.);
#144=ORIENTED_EDGE('',*,*,#115,.F.);
#145=ORIENTED_EDGE('',*,*,#104,.T.);
#146=ORIENTED_EDGE('',*,*,#113,.T.);
#147=ORIENTED_EDGE('',*,*,#116,.T.);
#148=ORIENTED_EDGE('',*,*,#117,.F.);
#149=ORIENTED_EDGE('',*,*,#105,.T.);
#150=ORIENTED_EDGE('',*,*,#115,.T.);
#151=ORIENTED_EDGE('',*,*,#118,.T.);
#152=ORIENTED_EDGE('',*,*,#119,.F.);
#153=ORIENTED_EDGE('',*,*,#106,.T.);
#154=ORIENTED_EDGE('',*,*,#117,.T.);
#155=ORIENTED_EDGE('',*,*,#120,.T.);
#156=ORIENTED_EDGE('',*,*,#121,.F.);
#157=ORIENTED_EDGE('',*,*,#99,.T.);
#158=ORIENTED_EDGE('',*,*,#119,.T.);
#159=ORIENTED_EDGE('',*,*,#122,.T.);
#160=ORIENTED_EDGE('',*,*,#109,.T.);
#161=ORIENTED_EDGE('',*,*,#100,.T.);
#162=ORIENTED_EDGE('',*,*,#121,.T.);
#163=ORIENTED_EDGE('',*,*,#107,.F.);
#164=ORIENTED_EDGE('',*,*,#122,.F.);
#165=ORIENTED_EDGE('',*,*,#120,.F.);
#166=ORIENTED_EDGE('',*,*,#118,.F.);
#167=ORIENTED_EDGE('',*,*,#116,.F.);
#168=ORIENTED_EDGE('',*,*,#114,.F.);
#169=ORIENTED_EDGE('',*,*,#112,.F.);
#170=ORIENTED_EDGE('',*,*,#110,.F.);
#171=PLANE('',#213);
#172=PLANE('',#215);
#173=PLANE('',#216);
#174=PLANE('',#217);
#175=PLANE('',#220);
#176=PLANE('',#221);
#177=PLANE('',#222);
#178=PLANE('',#223);
#179=PLANE('',#224);
#180=ADVANCED_FACE('',(#17),#171,.F.);
#181=ADVANCED_FACE('',(#18),#172,.T.);
#182=ADVANCED_FACE('',(#19),#173,.T.);
#183=ADVANCED_FACE('',(#20),#174,.T.);
#184=ADVANCED_FACE('',(#21),#16,.F.);
#185=ADVANCED_FACE('',(#22),#175,.T.);
#186=ADVANCED_FACE('',(#23),#176,.T.);
#187=ADVANCED_FACE('',(#24),#177,.T.);
#188=ADVANCED_FACE('',(#25),#178,.T.);
#189=ADVANCED_FACE('',(#26),#179,.T.);
#190=CLOSED_SHELL('',(#180,#181,#182,#183,#184,#185,#186,#187,#188,#189));
#191=DERIVED_UNIT_ELEMENT(#194,1.);
#192=DERIVED_UNIT_ELEMENT(#329,-3.);
#193=DIMENSIONAL_EXPONENTS(0.,1.,0.,0.,0.,0.,0.);
#194=(
CONVERSION_BASED_UNIT('gram',#196)
MASS_UNIT()
NAMED_UNIT(#193)
);
#195=(
MASS_UNIT()
NAMED_UNIT(*)
SI_UNIT(.KILO.,.GRAM.)
);
#196=MASS_MEASURE_WITH_UNIT(MASS_MEASURE(0.001),#195);
#197=DERIVED_UNIT((#191,#192));
#198=MEASURE_REPRESENTATION_ITEM('density measure',
POSITIVE_RATIO_MEASURE(8.03),#197);
#199=PROPERTY_DEFINITION_REPRESENTATION(#204,#201);
#200=PROPERTY_DEFINITION_REPRESENTATION(#205,#202);
#201=REPRESENTATION('material name',(#203),#326);
#202=REPRESENTATION('density',(#198),#326);
#203=DESCRIPTIVE_REPRESENTATION_ITEM('1.4301','1.4301');
#204=PROPERTY_DEFINITION('material property','material name',#336);
#205=PROPERTY_DEFINITION('material property','density of part',#336);
#206=DATE_TIME_ROLE('creation_date');
#207=APPLIED_DATE_AND_TIME_ASSIGNMENT(#208,#206,(#336));
#208=DATE_AND_TIME(#209,#210);
#209=CALENDAR_DATE(2011,20,10);
#210=LOCAL_TIME(0,0,0.,#211);
#211=COORDINATED_UNIVERSAL_TIME_OFFSET(0,0,.BEHIND.);
#212=AXIS2_PLACEMENT_3D('',#273,#225,#226);
#213=AXIS2_PLACEMENT_3D('',#274,#227,#228);
#214=AXIS2_PLACEMENT_3D('',#287,#234,#235);
#215=AXIS2_PLACEMENT_3D('',#291,#238,#239);
#216=AXIS2_PLACEMENT_3D('',#297,#243,#244);
#217=AXIS2_PLACEMENT_3D('',#301,#247,#248);
#218=AXIS2_PLACEMENT_3D('',#305,#251,#252);
#219=AXIS2_PLACEMENT_3D('',#307,#253,#254);
#220=AXIS2_PLACEMENT_3D('',#309,#256,#257);
#221=AXIS2_PLACEMENT_3D('',#313,#260,#261);
#222=AXIS2_PLACEMENT_3D('',#317,#264,#265);
#223=AXIS2_PLACEMENT_3D('',#321,#268,#269);
#224=AXIS2_PLACEMENT_3D('',#323,#271,#272);
#225=DIRECTION('axis',(0.,0.,1.));
#226=DIRECTION('refdir',(1.,0.,0.));
#227=DIRECTION('center_axis',(0.,0.,1.));
#228=DIRECTION('ref_axis',(1.,0.,0.));
#229=DIRECTION('',(-3.5527136788005E-16,1.,0.));
#230=DIRECTION('',(1.,0.,0.));
#231=DIRECTION('',(0.,-1.,0.));
#232=DIRECTION('',(-1.,0.,0.));
#233=DIRECTION('',(-2.77555756156289E-17,1.,0.));
#234=DIRECTION('center_axis',(0.,0.,-1.));
#235=DIRECTION('ref_axis',(1.,0.,0.));
#236=DIRECTION('',(0.,-1.,0.));
#237=DIRECTION('',(-1.,0.,0.));
#238=DIRECTION('center_axis',(-1.,0.,0.));
#239=DIRECTION('ref_axis',(0.,0.,1.));
#240=DIRECTION('',(0.,1.,0.));
#241=DIRECTION('',(0.,0.,1.));
#242=DIRECTION('',(0.,0.,-1.));
#243=DIRECTION('center_axis',(0.,1.,0.));
#244=DIRECTION('ref_axis',(0.,0.,1.));
#245=DIRECTION('',(1.,0.,0.));
#246=DIRECTION('',(0.,0.,1.));
#247=DIRECTION('center_axis',(1.,2.77555756156289E-17,0.));
#248=DIRECTION('ref_axis',(0.,0.,-1.));
#249=DIRECTION('',(2.77555756156289E-17,-1.,0.));
#250=DIRECTION('',(0.,0.,1.));
#251=DIRECTION('center_axis',(0.,0.,1.));
#252=DIRECTION('ref_axis',(1.60812264967664E-16,-1.,0.));
#253=DIRECTION('center_axis',(0.,0.,1.));
#254=DIRECTION('ref_axis',(-2.83276944882399E-16,1.,0.));
#255=DIRECTION('',(0.,0.,1.));
#256=DIRECTION('center_axis',(-1.,0.,0.));
#257=DIRECTION('ref_axis',(0.,0.,1.));
#258=DIRECTION('',(0.,1.,0.));
#259=DIRECTION('',(0.,0.,1.));
#260=DIRECTION('center_axis',(0.,1.,0.));
#261=DIRECTION('ref_axis',(0.,0.,1.));
#262=DIRECTION('',(1.,0.,0.));
#263=DIRECTION('',(0.,0.,1.));
#264=DIRECTION('center_axis',(1.,3.5527136788005E-16,0.));
#265=DIRECTION('ref_axis',(0.,0.,-1.));
#266=DIRECTION('',(3.5527136788005E-16,-1.,0.));
#267=DIRECTION('',(0.,0.,1.));
#268=DIRECTION('center_axis',(0.,-1.,0.));
#269=DIRECTION('ref_axis',(0.,0.,-1.));
#270=DIRECTION('',(-1.,0.,0.));
#271=DIRECTION('center_axis',(0.,0.,1.));
#272=DIRECTION('ref_axis',(1.,0.,0.));
#273=CARTESIAN_POINT('',(0.,0.,0.));
#274=CARTESIAN_POINT('Origin',(0.,-0.440127512764192,-5.));
#275=CARTESIAN_POINT('',(30.,-25.,-5.));
#276=CARTESIAN_POINT('',(30.,25.,-5.));
#277=CARTESIAN_POINT('',(30.,-25.,-5.));
#278=CARTESIAN_POINT('',(-30.,-25.,-5.));
#279=CARTESIAN_POINT('',(-30.,-25.,-5.));
#280=CARTESIAN_POINT('',(-30.,25.,-5.));
#281=CARTESIAN_POINT('',(-30.,25.,-5.));
#282=CARTESIAN_POINT('',(-5.,25.,-5.));
#283=CARTESIAN_POINT('',(-5.,25.,-5.));
#284=CARTESIAN_POINT('',(-5.,-15.,-5.));
#285=CARTESIAN_POINT('',(-5.,-15.,-5.));
#286=CARTESIAN_POINT('',(5.,-15.,-5.));
#287=CARTESIAN_POINT('Origin',(1.11022302462516E-15,-15.,-5.));
#288=CARTESIAN_POINT('',(5.,25.,-5.));
#289=CARTESIAN_POINT('',(5.,25.,-5.));
#290=CARTESIAN_POINT('',(30.,25.,-5.));
#291=CARTESIAN_POINT('Origin',(-30.,-25.,0.));
#292=CARTESIAN_POINT('',(-30.,-25.,5.));
#293=CARTESIAN_POINT('',(-30.,25.,5.));
#294=CARTESIAN_POINT('',(-30.,25.,5.));
#295=CARTESIAN_POINT('',(-30.,25.,0.));
#296=CARTESIAN_POINT('',(-30.,-25.,0.));
#297=CARTESIAN_POINT('Origin',(-30.,25.,0.));
#298=CARTESIAN_POINT('',(-5.,25.,5.));
#299=CARTESIAN_POINT('',(-5.,25.,5.));
#300=CARTESIAN_POINT('',(-5.,25.,0.));
#301=CARTESIAN_POINT('Origin',(-5.,25.,0.));
#302=CARTESIAN_POINT('',(-5.,-15.,5.));
#303=CARTESIAN_POINT('',(-5.,-15.,5.));
#304=CARTESIAN_POINT('',(-5.,-15.,0.));
#305=CARTESIAN_POINT('Origin',(-1.11022302462516E-15,-15.,0.));
#306=CARTESIAN_POINT('',(5.,-15.,5.));
#307=CARTESIAN_POINT('Origin',(-1.11022302462516E-15,-15.,5.));
#308=CARTESIAN_POINT('',(5.,-15.,0.));
#309=CARTESIAN_POINT('Origin',(5.,-15.,0.));
#310=CARTESIAN_POINT('',(5.,25.,5.));
#311=CARTESIAN_POINT('',(5.,25.,5.));
#312=CARTESIAN_POINT('',(5.,25.,0.));
#313=CARTESIAN_POINT('Origin',(5.,25.,0.));
#314=CARTESIAN_POINT('',(30.,25.,5.));
#315=CARTESIAN_POINT('',(30.,25.,5.));
#316=CARTESIAN_POINT('',(30.,25.,0.));
#317=CARTESIAN_POINT('Origin',(30.,25.,0.));
#318=CARTESIAN_POINT('',(30.,-25.,5.));
#319=CARTESIAN_POINT('',(30.,-25.,5.));
#320=CARTESIAN_POINT('',(30.,-25.,0.));
#321=CARTESIAN_POINT('Origin',(30.,-25.,0.));
#322=CARTESIAN_POINT('',(-30.,-25.,5.));
#323=CARTESIAN_POINT('Origin',(0.,-0.440127512764192,5.));
#324=UNCERTAINTY_MEASURE_WITH_UNIT(LENGTH_MEASURE(0.01),#328,
'DISTANCE_ACCURACY_VALUE',
'Maximum model space distance between geometric entities at asserted c
onnectivities');
#325=UNCERTAINTY_MEASURE_WITH_UNIT(LENGTH_MEASURE(0.01),#328,
'DISTANCE_ACCURACY_VALUE',
'Maximum model space distance between geometric entities at asserted c
onnectivities');
#326=(
GEOMETRIC_REPRESENTATION_CONTEXT(3)
GLOBAL_UNCERTAINTY_ASSIGNED_CONTEXT((#324))
GLOBAL_UNIT_ASSIGNED_CONTEXT((#328,#330,#331))
REPRESENTATION_CONTEXT('','3D')
);
#327=(
GEOMETRIC_REPRESENTATION_CONTEXT(3)
GLOBAL_UNCERTAINTY_ASSIGNED_CONTEXT((#325))
GLOBAL_UNIT_ASSIGNED_CONTEXT((#328,#330,#331))
REPRESENTATION_CONTEXT('','3D')
);
#328=(
LENGTH_UNIT()
NAMED_UNIT(*)
SI_UNIT(.MILLI.,.METRE.)
);
#329=(
LENGTH_UNIT()
NAMED_UNIT(*)
SI_UNIT(.CENTI.,.METRE.)
);
#330=(
NAMED_UNIT(*)
PLANE_ANGLE_UNIT()
SI_UNIT($,.RADIAN.)
);
#331=(
NAMED_UNIT(*)
SI_UNIT($,.STERADIAN.)
SOLID_ANGLE_UNIT()
);
#332=SHAPE_DEFINITION_REPRESENTATION(#333,#334);
#333=PRODUCT_DEFINITION_SHAPE('',$,#336);
#334=SHAPE_REPRESENTATION('',(#212),#326);
#335=PRODUCT_DEFINITION_CONTEXT('part definition',#340,'design');
#336=PRODUCT_DEFINITION('WKZ-0067','E_3_01_10_01_00_WKZ-0067',#337,#335);
#337=PRODUCT_DEFINITION_FORMATION('',$,#342);
#338=PRODUCT_RELATED_PRODUCT_CATEGORY('E_3_01_10_01_00_WKZ-0067',
'E_3_01_10_01_00_WKZ-0067',(#342));
#339=APPLICATION_PROTOCOL_DEFINITION('international standard',
'automotive_design',2009,#340);
#340=APPLICATION_CONTEXT(
'Core Data for Automotive Mechanical Design Process');
#341=PRODUCT_CONTEXT('part definition',#340,'mechanical');
#342=PRODUCT('WKZ-0067','E_3_01_10_01_00_WKZ-0067',$,(#341));
#343=PRESENTATION_STYLE_ASSIGNMENT((#345));
#344=PRESENTATION_STYLE_ASSIGNMENT((#346));
#345=SURFACE_STYLE_USAGE(.BOTH.,#349);
#346=SURFACE_STYLE_USAGE(.BOTH.,#350);
#347=SURFACE_STYLE_RENDERING_WITH_PROPERTIES($,#357,(#348));
#348=SURFACE_STYLE_TRANSPARENT(0.);
#349=SURFACE_SIDE_STYLE('',(#351,#347));
#350=SURFACE_SIDE_STYLE('',(#352));
#351=SURFACE_STYLE_FILL_AREA(#353);
#352=SURFACE_STYLE_FILL_AREA(#354);
#353=FILL_AREA_STYLE('',(#355));
#354=FILL_AREA_STYLE('',(#356));
#355=FILL_AREA_STYLE_COLOUR('',#357);
#356=FILL_AREA_STYLE_COLOUR('',#358);
#357=COLOUR_RGB('',0.92156862745098,0.92156862745098,0.92156862745098);
#358=COLOUR_RGB('',0.16078431372549,0.16078431372549,0.16078431372549);
ENDSEC;
END-ISO-10303-21;
