ISO-10303-21;
HEADER;
/* Generated by software containing ST-Developer
 * from STEP Tools, Inc. (www.steptools.com) 
 */

FILE_DESCRIPTION(
/* description */ (''),
/* implementation_level */ '2;1');

FILE_NAME(
/* name */ 'E_3_01_09_13_00_WKZ-0059.stp',
/* time_stamp */ '2025-11-24T11:03:38+01:00',
/* author */ ('d.fischer'),
/* organization */ (''),
/* preprocessor_version */ 'ST-DEVELOPER v20',
/* originating_system */ 'Autodesk Inventor 2025',
/* authorisation */ '');

FILE_SCHEMA (('AUTOMOTIVE_DESIGN { 1 0 10303 214 3 1 1 }'));
ENDSEC;

DATA;
#10=MECHANICAL_DESIGN_GEOMETRIC_PRESENTATION_REPRESENTATION('',(#14,#15),
#271);
#11=SHAPE_REPRESENTATION_RELATIONSHIP('SRR','None',#278,#12);
#12=ADVANCED_BREP_SHAPE_REPRESENTATION('',(#13),#270);
#13=MANIFOLD_SOLID_BREP('Volumenk\X\F6rper1',#154);
#14=STYLED_ITEM('',(#288),#152);
#15=STYLED_ITEM('',(#287),#13);
#16=FACE_BOUND('',#37,.T.);
#17=FACE_BOUND('',#38,.T.);
#18=FACE_BOUND('',#44,.T.);
#19=FACE_BOUND('',#45,.T.);
#20=PLANE('',#183);
#21=PLANE('',#184);
#22=PLANE('',#185);
#23=PLANE('',#186);
#24=PLANE('',#187);
#25=PLANE('',#188);
#26=FACE_OUTER_BOUND('',#34,.T.);
#27=FACE_OUTER_BOUND('',#35,.T.);
#28=FACE_OUTER_BOUND('',#36,.T.);
#29=FACE_OUTER_BOUND('',#39,.T.);
#30=FACE_OUTER_BOUND('',#40,.T.);
#31=FACE_OUTER_BOUND('',#41,.T.);
#32=FACE_OUTER_BOUND('',#42,.T.);
#33=FACE_OUTER_BOUND('',#43,.T.);
#34=EDGE_LOOP('',(#108,#109,#110,#111));
#35=EDGE_LOOP('',(#112,#113,#114,#115));
#36=EDGE_LOOP('',(#116,#117,#118,#119));
#37=EDGE_LOOP('',(#120));
#38=EDGE_LOOP('',(#121));
#39=EDGE_LOOP('',(#122,#123,#124,#125));
#40=EDGE_LOOP('',(#126,#127,#128,#129));
#41=EDGE_LOOP('',(#130,#131,#132,#133));
#42=EDGE_LOOP('',(#134,#135,#136,#137));
#43=EDGE_LOOP('',(#138,#139,#140,#141));
#44=EDGE_LOOP('',(#142));
#45=EDGE_LOOP('',(#143));
#46=LINE('',#234,#60);
#47=LINE('',#240,#61);
#48=LINE('',#245,#62);
#49=LINE('',#247,#63);
#50=LINE('',#249,#64);
#51=LINE('',#250,#65);
#52=LINE('',#254,#66);
#53=LINE('',#255,#67);
#54=LINE('',#256,#68);
#55=LINE('',#259,#69);
#56=LINE('',#260,#70);
#57=LINE('',#263,#71);
#58=LINE('',#264,#72);
#59=LINE('',#266,#73);
#60=VECTOR('',#195,2.25);
#61=VECTOR('',#202,2.25);
#62=VECTOR('',#207,10.);
#63=VECTOR('',#208,10.);
#64=VECTOR('',#209,10.);
#65=VECTOR('',#210,10.);
#66=VECTOR('',#213,10.);
#67=VECTOR('',#214,10.);
#68=VECTOR('',#215,10.);
#69=VECTOR('',#218,10.);
#70=VECTOR('',#219,10.);
#71=VECTOR('',#222,10.);
#72=VECTOR('',#223,10.);
#73=VECTOR('',#226,10.);
#74=CIRCLE('',#178,2.25);
#75=CIRCLE('',#179,2.25);
#76=CIRCLE('',#181,2.25);
#77=CIRCLE('',#182,2.25);
#78=VERTEX_POINT('',#231);
#79=VERTEX_POINT('',#233);
#80=VERTEX_POINT('',#237);
#81=VERTEX_POINT('',#239);
#82=VERTEX_POINT('',#243);
#83=VERTEX_POINT('',#244);
#84=VERTEX_POINT('',#246);
#85=VERTEX_POINT('',#248);
#86=VERTEX_POINT('',#252);
#87=VERTEX_POINT('',#253);
#88=VERTEX_POINT('',#258);
#89=VERTEX_POINT('',#262);
#90=EDGE_CURVE('',#78,#78,#74,.T.);
#91=EDGE_CURVE('',#78,#79,#46,.T.);
#92=EDGE_CURVE('',#79,#79,#75,.T.);
#93=EDGE_CURVE('',#80,#80,#76,.T.);
#94=EDGE_CURVE('',#80,#81,#47,.T.);
#95=EDGE_CURVE('',#81,#81,#77,.T.);
#96=EDGE_CURVE('',#82,#83,#48,.T.);
#97=EDGE_CURVE('',#84,#82,#49,.T.);
#98=EDGE_CURVE('',#85,#84,#50,.T.);
#99=EDGE_CURVE('',#83,#85,#51,.T.);
#100=EDGE_CURVE('',#86,#87,#52,.T.);
#101=EDGE_CURVE('',#85,#87,#53,.T.);
#102=EDGE_CURVE('',#86,#84,#54,.T.);
#103=EDGE_CURVE('',#87,#88,#55,.T.);
#104=EDGE_CURVE('',#83,#88,#56,.T.);
#105=EDGE_CURVE('',#88,#89,#57,.T.);
#106=EDGE_CURVE('',#82,#89,#58,.T.);
#107=EDGE_CURVE('',#89,#86,#59,.T.);
#108=ORIENTED_EDGE('',*,*,#90,.F.);
#109=ORIENTED_EDGE('',*,*,#91,.T.);
#110=ORIENTED_EDGE('',*,*,#92,.F.);
#111=ORIENTED_EDGE('',*,*,#91,.F.);
#112=ORIENTED_EDGE('',*,*,#93,.F.);
#113=ORIENTED_EDGE('',*,*,#94,.T.);
#114=ORIENTED_EDGE('',*,*,#95,.F.);
#115=ORIENTED_EDGE('',*,*,#94,.F.);
#116=ORIENTED_EDGE('',*,*,#96,.F.);
#117=ORIENTED_EDGE('',*,*,#97,.F.);
#118=ORIENTED_EDGE('',*,*,#98,.F.);
#119=ORIENTED_EDGE('',*,*,#99,.F.);
#120=ORIENTED_EDGE('',*,*,#90,.T.);
#121=ORIENTED_EDGE('',*,*,#93,.T.);
#122=ORIENTED_EDGE('',*,*,#100,.T.);
#123=ORIENTED_EDGE('',*,*,#101,.F.);
#124=ORIENTED_EDGE('',*,*,#98,.T.);
#125=ORIENTED_EDGE('',*,*,#102,.F.);
#126=ORIENTED_EDGE('',*,*,#103,.T.);
#127=ORIENTED_EDGE('',*,*,#104,.F.);
#128=ORIENTED_EDGE('',*,*,#99,.T.);
#129=ORIENTED_EDGE('',*,*,#101,.T.);
#130=ORIENTED_EDGE('',*,*,#105,.T.);
#131=ORIENTED_EDGE('',*,*,#106,.F.);
#132=ORIENTED_EDGE('',*,*,#96,.T.);
#133=ORIENTED_EDGE('',*,*,#104,.T.);
#134=ORIENTED_EDGE('',*,*,#107,.T.);
#135=ORIENTED_EDGE('',*,*,#102,.T.);
#136=ORIENTED_EDGE('',*,*,#97,.T.);
#137=ORIENTED_EDGE('',*,*,#106,.T.);
#138=ORIENTED_EDGE('',*,*,#100,.F.);
#139=ORIENTED_EDGE('',*,*,#107,.F.);
#140=ORIENTED_EDGE('',*,*,#105,.F.);
#141=ORIENTED_EDGE('',*,*,#103,.F.);
#142=ORIENTED_EDGE('',*,*,#92,.T.);
#143=ORIENTED_EDGE('',*,*,#95,.T.);
#144=CYLINDRICAL_SURFACE('',#177,2.25);
#145=CYLINDRICAL_SURFACE('',#180,2.25);
#146=ADVANCED_FACE('',(#26),#144,.F.);
#147=ADVANCED_FACE('',(#27),#145,.F.);
#148=ADVANCED_FACE('',(#28,#16,#17),#20,.F.);
#149=ADVANCED_FACE('',(#29),#21,.T.);
#150=ADVANCED_FACE('',(#30),#22,.T.);
#151=ADVANCED_FACE('',(#31),#23,.T.);
#152=ADVANCED_FACE('',(#32),#24,.T.);
#153=ADVANCED_FACE('',(#33,#18,#19),#25,.T.);
#154=CLOSED_SHELL('',(#146,#147,#148,#149,#150,#151,#152,#153));
#155=DERIVED_UNIT_ELEMENT(#158,1.);
#156=DERIVED_UNIT_ELEMENT(#273,-3.);
#157=DIMENSIONAL_EXPONENTS(0.,1.,0.,0.,0.,0.,0.);
#158=(
CONVERSION_BASED_UNIT('gram',#160)
MASS_UNIT()
NAMED_UNIT(#157)
);
#159=(
MASS_UNIT()
NAMED_UNIT(*)
SI_UNIT(.KILO.,.GRAM.)
);
#160=MASS_MEASURE_WITH_UNIT(MASS_MEASURE(0.001),#159);
#161=DERIVED_UNIT((#155,#156));
#162=MEASURE_REPRESENTATION_ITEM('density measure',
POSITIVE_RATIO_MEASURE(8.03),#161);
#163=PROPERTY_DEFINITION_REPRESENTATION(#168,#165);
#164=PROPERTY_DEFINITION_REPRESENTATION(#169,#166);
#165=REPRESENTATION('material name',(#167),#270);
#166=REPRESENTATION('density',(#162),#270);
#167=DESCRIPTIVE_REPRESENTATION_ITEM('1.4301','1.4301');
#168=PROPERTY_DEFINITION('material property','material name',#280);
#169=PROPERTY_DEFINITION('material property','density of part',#280);
#170=DATE_TIME_ROLE('creation_date');
#171=APPLIED_DATE_AND_TIME_ASSIGNMENT(#172,#170,(#280));
#172=DATE_AND_TIME(#173,#174);
#173=CALENDAR_DATE(2011,20,10);
#174=LOCAL_TIME(0,0,0.,#175);
#175=COORDINATED_UNIVERSAL_TIME_OFFSET(0,0,.BEHIND.);
#176=AXIS2_PLACEMENT_3D('',#229,#189,#190);
#177=AXIS2_PLACEMENT_3D('',#230,#191,#192);
#178=AXIS2_PLACEMENT_3D('',#232,#193,#194);
#179=AXIS2_PLACEMENT_3D('',#235,#196,#197);
#180=AXIS2_PLACEMENT_3D('',#236,#198,#199);
#181=AXIS2_PLACEMENT_3D('',#238,#200,#201);
#182=AXIS2_PLACEMENT_3D('',#241,#203,#204);
#183=AXIS2_PLACEMENT_3D('',#242,#205,#206);
#184=AXIS2_PLACEMENT_3D('',#251,#211,#212);
#185=AXIS2_PLACEMENT_3D('',#257,#216,#217);
#186=AXIS2_PLACEMENT_3D('',#261,#220,#221);
#187=AXIS2_PLACEMENT_3D('',#265,#224,#225);
#188=AXIS2_PLACEMENT_3D('',#267,#227,#228);
#189=DIRECTION('axis',(0.,0.,1.));
#190=DIRECTION('refdir',(1.,0.,0.));
#191=DIRECTION('center_axis',(0.,0.,1.));
#192=DIRECTION('ref_axis',(-1.,0.,0.));
#193=DIRECTION('center_axis',(0.,0.,1.));
#194=DIRECTION('ref_axis',(-1.,0.,0.));
#195=DIRECTION('',(0.,0.,1.));
#196=DIRECTION('center_axis',(0.,0.,-1.));
#197=DIRECTION('ref_axis',(-1.,0.,0.));
#198=DIRECTION('center_axis',(0.,0.,1.));
#199=DIRECTION('ref_axis',(-1.,0.,0.));
#200=DIRECTION('center_axis',(0.,0.,1.));
#201=DIRECTION('ref_axis',(-1.,0.,0.));
#202=DIRECTION('',(0.,0.,1.));
#203=DIRECTION('center_axis',(0.,0.,-1.));
#204=DIRECTION('ref_axis',(-1.,0.,0.));
#205=DIRECTION('center_axis',(0.,0.,1.));
#206=DIRECTION('ref_axis',(1.,0.,0.));
#207=DIRECTION('',(0.,1.,0.));
#208=DIRECTION('',(1.,0.,0.));
#209=DIRECTION('',(0.,-1.,0.));
#210=DIRECTION('',(-1.,0.,0.));
#211=DIRECTION('center_axis',(-1.,0.,0.));
#212=DIRECTION('ref_axis',(0.,0.,1.));
#213=DIRECTION('',(0.,1.,0.));
#214=DIRECTION('',(0.,0.,1.));
#215=DIRECTION('',(0.,0.,-1.));
#216=DIRECTION('center_axis',(0.,1.,0.));
#217=DIRECTION('ref_axis',(0.,0.,1.));
#218=DIRECTION('',(1.,0.,0.));
#219=DIRECTION('',(0.,0.,1.));
#220=DIRECTION('center_axis',(1.,0.,0.));
#221=DIRECTION('ref_axis',(0.,0.,-1.));
#222=DIRECTION('',(0.,-1.,0.));
#223=DIRECTION('',(0.,0.,1.));
#224=DIRECTION('center_axis',(0.,-1.,0.));
#225=DIRECTION('ref_axis',(0.,0.,-1.));
#226=DIRECTION('',(-1.,0.,0.));
#227=DIRECTION('center_axis',(0.,0.,1.));
#228=DIRECTION('ref_axis',(1.,0.,0.));
#229=CARTESIAN_POINT('',(0.,0.,0.));
#230=CARTESIAN_POINT('Origin',(-6.5,0.,0.));
#231=CARTESIAN_POINT('',(-4.25,2.75545529808154E-16,-5.));
#232=CARTESIAN_POINT('Origin',(-6.5,0.,-5.));
#233=CARTESIAN_POINT('',(-4.25,2.75545529808154E-16,5.));
#234=CARTESIAN_POINT('',(-4.25,2.75545529808154E-16,0.));
#235=CARTESIAN_POINT('Origin',(-6.5,0.,5.));
#236=CARTESIAN_POINT('Origin',(6.5,0.,0.));
#237=CARTESIAN_POINT('',(8.75,2.75545529808154E-16,-5.));
#238=CARTESIAN_POINT('Origin',(6.5,0.,-5.));
#239=CARTESIAN_POINT('',(8.75,2.75545529808154E-16,5.));
#240=CARTESIAN_POINT('',(8.75,2.75545529808154E-16,0.));
#241=CARTESIAN_POINT('Origin',(6.5,0.,5.));
#242=CARTESIAN_POINT('Origin',(0.,-3.78485122031303E-17,-5.));
#243=CARTESIAN_POINT('',(12.5,-7.5,-5.));
#244=CARTESIAN_POINT('',(12.5,7.5,-5.));
#245=CARTESIAN_POINT('',(12.5,-7.5,-5.));
#246=CARTESIAN_POINT('',(-12.5,-7.5,-5.));
#247=CARTESIAN_POINT('',(-12.5,-7.5,-5.));
#248=CARTESIAN_POINT('',(-12.5,7.5,-5.));
#249=CARTESIAN_POINT('',(-12.5,7.5,-5.));
#250=CARTESIAN_POINT('',(12.5,7.5,-5.));
#251=CARTESIAN_POINT('Origin',(-12.5,-7.5,0.));
#252=CARTESIAN_POINT('',(-12.5,-7.5,5.));
#253=CARTESIAN_POINT('',(-12.5,7.5,5.));
#254=CARTESIAN_POINT('',(-12.5,7.5,5.));
#255=CARTESIAN_POINT('',(-12.5,7.5,0.));
#256=CARTESIAN_POINT('',(-12.5,-7.5,0.));
#257=CARTESIAN_POINT('Origin',(-12.5,7.5,0.));
#258=CARTESIAN_POINT('',(12.5,7.5,5.));
#259=CARTESIAN_POINT('',(12.5,7.5,5.));
#260=CARTESIAN_POINT('',(12.5,7.5,0.));
#261=CARTESIAN_POINT('Origin',(12.5,7.5,0.));
#262=CARTESIAN_POINT('',(12.5,-7.5,5.));
#263=CARTESIAN_POINT('',(12.5,-7.5,5.));
#264=CARTESIAN_POINT('',(12.5,-7.5,0.));
#265=CARTESIAN_POINT('Origin',(12.5,-7.5,0.));
#266=CARTESIAN_POINT('',(-12.5,-7.5,5.));
#267=CARTESIAN_POINT('Origin',(0.,3.78485122031303E-17,5.));
#268=UNCERTAINTY_MEASURE_WITH_UNIT(LENGTH_MEASURE(0.01),#272,
'DISTANCE_ACCURACY_VALUE',
'Maximum model space distance between geometric entities at asserted c
onnectivities');
#269=UNCERTAINTY_MEASURE_WITH_UNIT(LENGTH_MEASURE(0.01),#272,
'DISTANCE_ACCURACY_VALUE',
'Maximum model space distance between geometric entities at asserted c
onnectivities');
#270=(
GEOMETRIC_REPRESENTATION_CONTEXT(3)
GLOBAL_UNCERTAINTY_ASSIGNED_CONTEXT((#268))
GLOBAL_UNIT_ASSIGNED_CONTEXT((#272,#274,#275))
REPRESENTATION_CONTEXT('','3D')
);
#271=(
GEOMETRIC_REPRESENTATION_CONTEXT(3)
GLOBAL_UNCERTAINTY_ASSIGNED_CONTEXT((#269))
GLOBAL_UNIT_ASSIGNED_CONTEXT((#272,#274,#275))
REPRESENTATION_CONTEXT('','3D')
);
#272=(
LENGTH_UNIT()
NAMED_UNIT(*)
SI_UNIT(.MILLI.,.METRE.)
);
#273=(
LENGTH_UNIT()
NAMED_UNIT(*)
SI_UNIT(.CENTI.,.METRE.)
);
#274=(
NAMED_UNIT(*)
PLANE_ANGLE_UNIT()
SI_UNIT($,.RADIAN.)
);
#275=(
NAMED_UNIT(*)
SI_UNIT($,.STERADIAN.)
SOLID_ANGLE_UNIT()
);
#276=SHAPE_DEFINITION_REPRESENTATION(#277,#278);
#277=PRODUCT_DEFINITION_SHAPE('',$,#280);
#278=SHAPE_REPRESENTATION('',(#176),#270);
#279=PRODUCT_DEFINITION_CONTEXT('part definition',#284,'design');
#280=PRODUCT_DEFINITION('WKZ-0059','E_3_01_09_13_00_WKZ-0059',#281,#279);
#281=PRODUCT_DEFINITION_FORMATION('',$,#286);
#282=PRODUCT_RELATED_PRODUCT_CATEGORY('E_3_01_09_13_00_WKZ-0059',
'E_3_01_09_13_00_WKZ-0059',(#286));
#283=APPLICATION_PROTOCOL_DEFINITION('international standard',
'automotive_design',2009,#284);
#284=APPLICATION_CONTEXT(
'Core Data for Automotive Mechanical Design Process');
#285=PRODUCT_CONTEXT('part definition',#284,'mechanical');
#286=PRODUCT('WKZ-0059','E_3_01_09_13_00_WKZ-0059',$,(#285));
#287=PRESENTATION_STYLE_ASSIGNMENT((#289));
#288=PRESENTATION_STYLE_ASSIGNMENT((#290));
#289=SURFACE_STYLE_USAGE(.BOTH.,#293);
#290=SURFACE_STYLE_USAGE(.BOTH.,#294);
#291=SURFACE_STYLE_RENDERING_WITH_PROPERTIES($,#301,(#292));
#292=SURFACE_STYLE_TRANSPARENT(0.);
#293=SURFACE_SIDE_STYLE('',(#295,#291));
#294=SURFACE_SIDE_STYLE('',(#296));
#295=SURFACE_STYLE_FILL_AREA(#297);
#296=SURFACE_STYLE_FILL_AREA(#298);
#297=FILL_AREA_STYLE('',(#299));
#298=FILL_AREA_STYLE('',(#300));
#299=FILL_AREA_STYLE_COLOUR('',#301);
#300=FILL_AREA_STYLE_COLOUR('',#302);
#301=COLOUR_RGB('',0.92156862745098,0.92156862745098,0.92156862745098);
#302=COLOUR_RGB('',0.16078431372549,0.16078431372549,0.16078431372549);
ENDSEC;
END-ISO-10303-21;
