ISO-10303-21;
HEADER;
/* Generated by software containing ST-Developer
 * from STEP Tools, Inc. (www.steptools.com) 
 */

FILE_DESCRIPTION(
/* description */ (''),
/* implementation_level */ '2;1');

FILE_NAME(
/* name */ 'E_3_01_09_12_00_WKZ-0100.stp',
/* time_stamp */ '2025-11-24T11:33:05+01:00',
/* author */ ('d.fischer'),
/* organization */ (''),
/* preprocessor_version */ 'ST-DEVELOPER v20',
/* originating_system */ 'Autodesk Inventor 2025',
/* authorisation */ '');

FILE_SCHEMA (('AUTOMOTIVE_DESIGN { 1 0 10303 214 3 1 1 }'));
ENDSEC;

DATA;
#10=MECHANICAL_DESIGN_GEOMETRIC_PRESENTATION_REPRESENTATION('',(#14,#15),
#364);
#11=SHAPE_REPRESENTATION_RELATIONSHIP('SRR','None',#371,#12);
#12=ADVANCED_BREP_SHAPE_REPRESENTATION('',(#13),#363);
#13=MANIFOLD_SOLID_BREP('Volumenk\X\F6rper1',#215);
#14=STYLED_ITEM('',(#381),#213);
#15=STYLED_ITEM('',(#380),#13);
#16=FACE_BOUND('',#41,.T.);
#17=FACE_BOUND('',#51,.T.);
#18=PLANE('',#241);
#19=PLANE('',#242);
#20=PLANE('',#243);
#21=PLANE('',#244);
#22=PLANE('',#245);
#23=PLANE('',#246);
#24=PLANE('',#247);
#25=PLANE('',#248);
#26=PLANE('',#249);
#27=PLANE('',#250);
#28=FACE_OUTER_BOUND('',#39,.T.);
#29=FACE_OUTER_BOUND('',#40,.T.);
#30=FACE_OUTER_BOUND('',#42,.T.);
#31=FACE_OUTER_BOUND('',#43,.T.);
#32=FACE_OUTER_BOUND('',#44,.T.);
#33=FACE_OUTER_BOUND('',#45,.T.);
#34=FACE_OUTER_BOUND('',#46,.T.);
#35=FACE_OUTER_BOUND('',#47,.T.);
#36=FACE_OUTER_BOUND('',#48,.T.);
#37=FACE_OUTER_BOUND('',#49,.T.);
#38=FACE_OUTER_BOUND('',#50,.T.);
#39=EDGE_LOOP('',(#149,#150,#151,#152));
#40=EDGE_LOOP('',(#153,#154,#155,#156,#157,#158,#159,#160));
#41=EDGE_LOOP('',(#161));
#42=EDGE_LOOP('',(#162,#163,#164,#165));
#43=EDGE_LOOP('',(#166,#167,#168,#169));
#44=EDGE_LOOP('',(#170,#171,#172,#173));
#45=EDGE_LOOP('',(#174,#175,#176,#177));
#46=EDGE_LOOP('',(#178,#179,#180,#181));
#47=EDGE_LOOP('',(#182,#183,#184,#185));
#48=EDGE_LOOP('',(#186,#187,#188,#189));
#49=EDGE_LOOP('',(#190,#191,#192,#193));
#50=EDGE_LOOP('',(#194,#195,#196,#197,#198,#199,#200,#201));
#51=EDGE_LOOP('',(#202));
#52=LINE('',#309,#77);
#53=LINE('',#314,#78);
#54=LINE('',#316,#79);
#55=LINE('',#318,#80);
#56=LINE('',#320,#81);
#57=LINE('',#322,#82);
#58=LINE('',#324,#83);
#59=LINE('',#326,#84);
#60=LINE('',#327,#85);
#61=LINE('',#331,#86);
#62=LINE('',#332,#87);
#63=LINE('',#333,#88);
#64=LINE('',#336,#89);
#65=LINE('',#337,#90);
#66=LINE('',#340,#91);
#67=LINE('',#341,#92);
#68=LINE('',#344,#93);
#69=LINE('',#345,#94);
#70=LINE('',#348,#95);
#71=LINE('',#349,#96);
#72=LINE('',#352,#97);
#73=LINE('',#353,#98);
#74=LINE('',#356,#99);
#75=LINE('',#357,#100);
#76=LINE('',#359,#101);
#77=VECTOR('',#257,6.5);
#78=VECTOR('',#262,10.);
#79=VECTOR('',#263,10.);
#80=VECTOR('',#264,10.);
#81=VECTOR('',#265,10.);
#82=VECTOR('',#266,10.);
#83=VECTOR('',#267,10.);
#84=VECTOR('',#268,10.);
#85=VECTOR('',#269,10.);
#86=VECTOR('',#272,10.);
#87=VECTOR('',#273,10.);
#88=VECTOR('',#274,10.);
#89=VECTOR('',#277,10.);
#90=VECTOR('',#278,10.);
#91=VECTOR('',#281,10.);
#92=VECTOR('',#282,10.);
#93=VECTOR('',#285,10.);
#94=VECTOR('',#286,10.);
#95=VECTOR('',#289,10.);
#96=VECTOR('',#290,10.);
#97=VECTOR('',#293,10.);
#98=VECTOR('',#294,10.);
#99=VECTOR('',#297,10.);
#100=VECTOR('',#298,10.);
#101=VECTOR('',#301,10.);
#102=CIRCLE('',#239,6.5);
#103=CIRCLE('',#240,6.5);
#104=VERTEX_POINT('',#306);
#105=VERTEX_POINT('',#308);
#106=VERTEX_POINT('',#312);
#107=VERTEX_POINT('',#313);
#108=VERTEX_POINT('',#315);
#109=VERTEX_POINT('',#317);
#110=VERTEX_POINT('',#319);
#111=VERTEX_POINT('',#321);
#112=VERTEX_POINT('',#323);
#113=VERTEX_POINT('',#325);
#114=VERTEX_POINT('',#329);
#115=VERTEX_POINT('',#330);
#116=VERTEX_POINT('',#335);
#117=VERTEX_POINT('',#339);
#118=VERTEX_POINT('',#343);
#119=VERTEX_POINT('',#347);
#120=VERTEX_POINT('',#351);
#121=VERTEX_POINT('',#355);
#122=EDGE_CURVE('',#104,#104,#102,.T.);
#123=EDGE_CURVE('',#104,#105,#52,.T.);
#124=EDGE_CURVE('',#105,#105,#103,.T.);
#125=EDGE_CURVE('',#106,#107,#53,.T.);
#126=EDGE_CURVE('',#108,#106,#54,.T.);
#127=EDGE_CURVE('',#109,#108,#55,.T.);
#128=EDGE_CURVE('',#110,#109,#56,.T.);
#129=EDGE_CURVE('',#111,#110,#57,.T.);
#130=EDGE_CURVE('',#112,#111,#58,.T.);
#131=EDGE_CURVE('',#113,#112,#59,.T.);
#132=EDGE_CURVE('',#107,#113,#60,.T.);
#133=EDGE_CURVE('',#114,#115,#61,.T.);
#134=EDGE_CURVE('',#115,#109,#62,.T.);
#135=EDGE_CURVE('',#114,#108,#63,.T.);
#136=EDGE_CURVE('',#115,#116,#64,.T.);
#137=EDGE_CURVE('',#116,#110,#65,.T.);
#138=EDGE_CURVE('',#116,#117,#66,.T.);
#139=EDGE_CURVE('',#117,#111,#67,.T.);
#140=EDGE_CURVE('',#117,#118,#68,.T.);
#141=EDGE_CURVE('',#118,#112,#69,.T.);
#142=EDGE_CURVE('',#118,#119,#70,.T.);
#143=EDGE_CURVE('',#119,#113,#71,.T.);
#144=EDGE_CURVE('',#119,#120,#72,.T.);
#145=EDGE_CURVE('',#120,#107,#73,.T.);
#146=EDGE_CURVE('',#120,#121,#74,.T.);
#147=EDGE_CURVE('',#106,#121,#75,.T.);
#148=EDGE_CURVE('',#121,#114,#76,.T.);
#149=ORIENTED_EDGE('',*,*,#122,.F.);
#150=ORIENTED_EDGE('',*,*,#123,.T.);
#151=ORIENTED_EDGE('',*,*,#124,.F.);
#152=ORIENTED_EDGE('',*,*,#123,.F.);
#153=ORIENTED_EDGE('',*,*,#125,.F.);
#154=ORIENTED_EDGE('',*,*,#126,.F.);
#155=ORIENTED_EDGE('',*,*,#127,.F.);
#156=ORIENTED_EDGE('',*,*,#128,.F.);
#157=ORIENTED_EDGE('',*,*,#129,.F.);
#158=ORIENTED_EDGE('',*,*,#130,.F.);
#159=ORIENTED_EDGE('',*,*,#131,.F.);
#160=ORIENTED_EDGE('',*,*,#132,.F.);
#161=ORIENTED_EDGE('',*,*,#122,.T.);
#162=ORIENTED_EDGE('',*,*,#133,.T.);
#163=ORIENTED_EDGE('',*,*,#134,.T.);
#164=ORIENTED_EDGE('',*,*,#127,.T.);
#165=ORIENTED_EDGE('',*,*,#135,.F.);
#166=ORIENTED_EDGE('',*,*,#136,.T.);
#167=ORIENTED_EDGE('',*,*,#137,.T.);
#168=ORIENTED_EDGE('',*,*,#128,.T.);
#169=ORIENTED_EDGE('',*,*,#134,.F.);
#170=ORIENTED_EDGE('',*,*,#138,.T.);
#171=ORIENTED_EDGE('',*,*,#139,.T.);
#172=ORIENTED_EDGE('',*,*,#129,.T.);
#173=ORIENTED_EDGE('',*,*,#137,.F.);
#174=ORIENTED_EDGE('',*,*,#140,.T.);
#175=ORIENTED_EDGE('',*,*,#141,.T.);
#176=ORIENTED_EDGE('',*,*,#130,.T.);
#177=ORIENTED_EDGE('',*,*,#139,.F.);
#178=ORIENTED_EDGE('',*,*,#142,.T.);
#179=ORIENTED_EDGE('',*,*,#143,.T.);
#180=ORIENTED_EDGE('',*,*,#131,.T.);
#181=ORIENTED_EDGE('',*,*,#141,.F.);
#182=ORIENTED_EDGE('',*,*,#144,.T.);
#183=ORIENTED_EDGE('',*,*,#145,.T.);
#184=ORIENTED_EDGE('',*,*,#132,.T.);
#185=ORIENTED_EDGE('',*,*,#143,.F.);
#186=ORIENTED_EDGE('',*,*,#146,.T.);
#187=ORIENTED_EDGE('',*,*,#147,.F.);
#188=ORIENTED_EDGE('',*,*,#125,.T.);
#189=ORIENTED_EDGE('',*,*,#145,.F.);
#190=ORIENTED_EDGE('',*,*,#148,.T.);
#191=ORIENTED_EDGE('',*,*,#135,.T.);
#192=ORIENTED_EDGE('',*,*,#126,.T.);
#193=ORIENTED_EDGE('',*,*,#147,.T.);
#194=ORIENTED_EDGE('',*,*,#133,.F.);
#195=ORIENTED_EDGE('',*,*,#148,.F.);
#196=ORIENTED_EDGE('',*,*,#146,.F.);
#197=ORIENTED_EDGE('',*,*,#144,.F.);
#198=ORIENTED_EDGE('',*,*,#142,.F.);
#199=ORIENTED_EDGE('',*,*,#140,.F.);
#200=ORIENTED_EDGE('',*,*,#138,.F.);
#201=ORIENTED_EDGE('',*,*,#136,.F.);
#202=ORIENTED_EDGE('',*,*,#124,.T.);
#203=CYLINDRICAL_SURFACE('',#238,6.5);
#204=ADVANCED_FACE('',(#28),#203,.F.);
#205=ADVANCED_FACE('',(#29,#16),#18,.F.);
#206=ADVANCED_FACE('',(#30),#19,.T.);
#207=ADVANCED_FACE('',(#31),#20,.T.);
#208=ADVANCED_FACE('',(#32),#21,.T.);
#209=ADVANCED_FACE('',(#33),#22,.T.);
#210=ADVANCED_FACE('',(#34),#23,.T.);
#211=ADVANCED_FACE('',(#35),#24,.T.);
#212=ADVANCED_FACE('',(#36),#25,.T.);
#213=ADVANCED_FACE('',(#37),#26,.T.);
#214=ADVANCED_FACE('',(#38,#17),#27,.T.);
#215=CLOSED_SHELL('',(#204,#205,#206,#207,#208,#209,#210,#211,#212,#213,
#214));
#216=DERIVED_UNIT_ELEMENT(#219,1.);
#217=DERIVED_UNIT_ELEMENT(#366,-3.);
#218=DIMENSIONAL_EXPONENTS(0.,1.,0.,0.,0.,0.,0.);
#219=(
CONVERSION_BASED_UNIT('gram',#221)
MASS_UNIT()
NAMED_UNIT(#218)
);
#220=(
MASS_UNIT()
NAMED_UNIT(*)
SI_UNIT(.KILO.,.GRAM.)
);
#221=MASS_MEASURE_WITH_UNIT(MASS_MEASURE(0.001),#220);
#222=DERIVED_UNIT((#216,#217));
#223=MEASURE_REPRESENTATION_ITEM('density measure',
POSITIVE_RATIO_MEASURE(8.03),#222);
#224=PROPERTY_DEFINITION_REPRESENTATION(#229,#226);
#225=PROPERTY_DEFINITION_REPRESENTATION(#230,#227);
#226=REPRESENTATION('material name',(#228),#363);
#227=REPRESENTATION('density',(#223),#363);
#228=DESCRIPTIVE_REPRESENTATION_ITEM('1.4301','1.4301');
#229=PROPERTY_DEFINITION('material property','material name',#373);
#230=PROPERTY_DEFINITION('material property','density of part',#373);
#231=DATE_TIME_ROLE('creation_date');
#232=APPLIED_DATE_AND_TIME_ASSIGNMENT(#233,#231,(#373));
#233=DATE_AND_TIME(#234,#235);
#234=CALENDAR_DATE(2011,19,10);
#235=LOCAL_TIME(0,0,0.,#236);
#236=COORDINATED_UNIVERSAL_TIME_OFFSET(0,0,.BEHIND.);
#237=AXIS2_PLACEMENT_3D('',#304,#251,#252);
#238=AXIS2_PLACEMENT_3D('',#305,#253,#254);
#239=AXIS2_PLACEMENT_3D('',#307,#255,#256);
#240=AXIS2_PLACEMENT_3D('',#310,#258,#259);
#241=AXIS2_PLACEMENT_3D('',#311,#260,#261);
#242=AXIS2_PLACEMENT_3D('',#328,#270,#271);
#243=AXIS2_PLACEMENT_3D('',#334,#275,#276);
#244=AXIS2_PLACEMENT_3D('',#338,#279,#280);
#245=AXIS2_PLACEMENT_3D('',#342,#283,#284);
#246=AXIS2_PLACEMENT_3D('',#346,#287,#288);
#247=AXIS2_PLACEMENT_3D('',#350,#291,#292);
#248=AXIS2_PLACEMENT_3D('',#354,#295,#296);
#249=AXIS2_PLACEMENT_3D('',#358,#299,#300);
#250=AXIS2_PLACEMENT_3D('',#360,#302,#303);
#251=DIRECTION('axis',(0.,0.,1.));
#252=DIRECTION('refdir',(1.,0.,0.));
#253=DIRECTION('center_axis',(0.,0.,1.));
#254=DIRECTION('ref_axis',(-1.,0.,0.));
#255=DIRECTION('center_axis',(0.,0.,1.));
#256=DIRECTION('ref_axis',(-1.,0.,0.));
#257=DIRECTION('',(0.,0.,1.));
#258=DIRECTION('center_axis',(0.,0.,-1.));
#259=DIRECTION('ref_axis',(-1.,0.,0.));
#260=DIRECTION('center_axis',(0.,0.,1.));
#261=DIRECTION('ref_axis',(1.,0.,0.));
#262=DIRECTION('',(3.70074341541719E-16,1.,0.));
#263=DIRECTION('',(1.,0.,0.));
#264=DIRECTION('',(3.70074341541719E-16,-1.,0.));
#265=DIRECTION('',(0.866025403784438,-0.5,0.));
#266=DIRECTION('',(1.1288563232647E-16,-1.,0.));
#267=DIRECTION('',(-1.,0.,0.));
#268=DIRECTION('',(1.1288563232647E-16,1.,0.));
#269=DIRECTION('',(0.866025403784438,0.5,0.));
#270=DIRECTION('center_axis',(-1.,-3.70074341541719E-16,0.));
#271=DIRECTION('ref_axis',(0.,0.,1.));
#272=DIRECTION('',(-3.70074341541719E-16,1.,0.));
#273=DIRECTION('',(0.,0.,-1.));
#274=DIRECTION('',(0.,0.,-1.));
#275=DIRECTION('center_axis',(-0.5,-0.866025403784438,0.));
#276=DIRECTION('ref_axis',(0.,0.,1.));
#277=DIRECTION('',(-0.866025403784438,0.5,0.));
#278=DIRECTION('',(0.,0.,-1.));
#279=DIRECTION('center_axis',(-1.,-1.1288563232647E-16,0.));
#280=DIRECTION('ref_axis',(0.,0.,1.));
#281=DIRECTION('',(-1.1288563232647E-16,1.,0.));
#282=DIRECTION('',(0.,0.,-1.));
#283=DIRECTION('center_axis',(0.,1.,0.));
#284=DIRECTION('ref_axis',(0.,0.,1.));
#285=DIRECTION('',(1.,0.,0.));
#286=DIRECTION('',(0.,0.,-1.));
#287=DIRECTION('center_axis',(1.,-1.1288563232647E-16,0.));
#288=DIRECTION('ref_axis',(0.,0.,-1.));
#289=DIRECTION('',(-1.1288563232647E-16,-1.,0.));
#290=DIRECTION('',(0.,0.,-1.));
#291=DIRECTION('center_axis',(0.5,-0.866025403784438,0.));
#292=DIRECTION('ref_axis',(0.,0.,-1.));
#293=DIRECTION('',(-0.866025403784438,-0.5,0.));
#294=DIRECTION('',(0.,0.,-1.));
#295=DIRECTION('center_axis',(1.,-3.70074341541719E-16,0.));
#296=DIRECTION('ref_axis',(0.,0.,-1.));
#297=DIRECTION('',(-3.70074341541719E-16,-1.,0.));
#298=DIRECTION('',(0.,0.,1.));
#299=DIRECTION('center_axis',(0.,-1.,0.));
#300=DIRECTION('ref_axis',(0.,0.,-1.));
#301=DIRECTION('',(-1.,0.,0.));
#302=DIRECTION('center_axis',(0.,0.,1.));
#303=DIRECTION('ref_axis',(1.,0.,0.));
#304=CARTESIAN_POINT('',(0.,0.,0.));
#305=CARTESIAN_POINT('Origin',(0.,15.,0.));
#306=CARTESIAN_POINT('',(6.5,15.,-25.));
#307=CARTESIAN_POINT('Origin',(0.,15.,-25.));
#308=CARTESIAN_POINT('',(6.5,15.,25.));
#309=CARTESIAN_POINT('',(6.5,15.,0.));
#310=CARTESIAN_POINT('Origin',(0.,15.,25.));
#311=CARTESIAN_POINT('Origin',(-1.56125112837913E-16,14.8343947738671,-25.));
#312=CARTESIAN_POINT('',(5.,0.,-25.));
#313=CARTESIAN_POINT('',(5.,3.,-25.));
#314=CARTESIAN_POINT('',(5.,3.,-25.));
#315=CARTESIAN_POINT('',(-5.,0.,-25.));
#316=CARTESIAN_POINT('',(5.,0.,-25.));
#317=CARTESIAN_POINT('',(-5.,3.,-25.));
#318=CARTESIAN_POINT('',(-5.,0.,-25.));
#319=CARTESIAN_POINT('',(-12.5,7.3301270189222,-25.));
#320=CARTESIAN_POINT('',(-5.,3.,-25.));
#321=CARTESIAN_POINT('',(-12.5,27.,-25.));
#322=CARTESIAN_POINT('',(-12.5,7.3301270189222,-25.));
#323=CARTESIAN_POINT('',(12.5,27.,-25.));
#324=CARTESIAN_POINT('',(-12.5,27.,-25.));
#325=CARTESIAN_POINT('',(12.5,7.3301270189222,-25.));
#326=CARTESIAN_POINT('',(12.5,27.,-25.));
#327=CARTESIAN_POINT('',(12.5,7.3301270189222,-25.));
#328=CARTESIAN_POINT('Origin',(-5.,0.,0.));
#329=CARTESIAN_POINT('',(-5.,0.,25.));
#330=CARTESIAN_POINT('',(-5.,3.,25.));
#331=CARTESIAN_POINT('',(-5.,0.,25.));
#332=CARTESIAN_POINT('',(-5.,3.,0.));
#333=CARTESIAN_POINT('',(-5.,0.,0.));
#334=CARTESIAN_POINT('Origin',(-5.,3.,0.));
#335=CARTESIAN_POINT('',(-12.5,7.3301270189222,25.));
#336=CARTESIAN_POINT('',(-5.,3.,25.));
#337=CARTESIAN_POINT('',(-12.5,7.3301270189222,0.));
#338=CARTESIAN_POINT('Origin',(-12.5,7.3301270189222,0.));
#339=CARTESIAN_POINT('',(-12.5,27.,25.));
#340=CARTESIAN_POINT('',(-12.5,7.3301270189222,25.));
#341=CARTESIAN_POINT('',(-12.5,27.,0.));
#342=CARTESIAN_POINT('Origin',(-12.5,27.,0.));
#343=CARTESIAN_POINT('',(12.5,27.,25.));
#344=CARTESIAN_POINT('',(-12.5,27.,25.));
#345=CARTESIAN_POINT('',(12.5,27.,0.));
#346=CARTESIAN_POINT('Origin',(12.5,27.,0.));
#347=CARTESIAN_POINT('',(12.5,7.3301270189222,25.));
#348=CARTESIAN_POINT('',(12.5,27.,25.));
#349=CARTESIAN_POINT('',(12.5,7.3301270189222,0.));
#350=CARTESIAN_POINT('Origin',(12.5,7.3301270189222,0.));
#351=CARTESIAN_POINT('',(5.,3.,25.));
#352=CARTESIAN_POINT('',(12.5,7.3301270189222,25.));
#353=CARTESIAN_POINT('',(5.,3.,0.));
#354=CARTESIAN_POINT('Origin',(5.,3.,0.));
#355=CARTESIAN_POINT('',(5.,0.,25.));
#356=CARTESIAN_POINT('',(5.,3.,25.));
#357=CARTESIAN_POINT('',(5.,0.,0.));
#358=CARTESIAN_POINT('Origin',(5.,0.,0.));
#359=CARTESIAN_POINT('',(5.,0.,25.));
#360=CARTESIAN_POINT('Origin',(1.73472347597681E-17,14.8343947738671,25.));
#361=UNCERTAINTY_MEASURE_WITH_UNIT(LENGTH_MEASURE(0.01),#365,
'DISTANCE_ACCURACY_VALUE',
'Maximum model space distance between geometric entities at asserted c
onnectivities');
#362=UNCERTAINTY_MEASURE_WITH_UNIT(LENGTH_MEASURE(0.01),#365,
'DISTANCE_ACCURACY_VALUE',
'Maximum model space distance between geometric entities at asserted c
onnectivities');
#363=(
GEOMETRIC_REPRESENTATION_CONTEXT(3)
GLOBAL_UNCERTAINTY_ASSIGNED_CONTEXT((#361))
GLOBAL_UNIT_ASSIGNED_CONTEXT((#365,#367,#368))
REPRESENTATION_CONTEXT('','3D')
);
#364=(
GEOMETRIC_REPRESENTATION_CONTEXT(3)
GLOBAL_UNCERTAINTY_ASSIGNED_CONTEXT((#362))
GLOBAL_UNIT_ASSIGNED_CONTEXT((#365,#367,#368))
REPRESENTATION_CONTEXT('','3D')
);
#365=(
LENGTH_UNIT()
NAMED_UNIT(*)
SI_UNIT(.MILLI.,.METRE.)
);
#366=(
LENGTH_UNIT()
NAMED_UNIT(*)
SI_UNIT(.CENTI.,.METRE.)
);
#367=(
NAMED_UNIT(*)
PLANE_ANGLE_UNIT()
SI_UNIT($,.RADIAN.)
);
#368=(
NAMED_UNIT(*)
SI_UNIT($,.STERADIAN.)
SOLID_ANGLE_UNIT()
);
#369=SHAPE_DEFINITION_REPRESENTATION(#370,#371);
#370=PRODUCT_DEFINITION_SHAPE('',$,#373);
#371=SHAPE_REPRESENTATION('',(#237),#363);
#372=PRODUCT_DEFINITION_CONTEXT('part definition',#377,'design');
#373=PRODUCT_DEFINITION('WKZ-0100','E_3_01_09_12_00_WKZ-0100',#374,#372);
#374=PRODUCT_DEFINITION_FORMATION('',$,#379);
#375=PRODUCT_RELATED_PRODUCT_CATEGORY('E_3_01_09_12_00_WKZ-0100',
'E_3_01_09_12_00_WKZ-0100',(#379));
#376=APPLICATION_PROTOCOL_DEFINITION('international standard',
'automotive_design',2009,#377);
#377=APPLICATION_CONTEXT(
'Core Data for Automotive Mechanical Design Process');
#378=PRODUCT_CONTEXT('part definition',#377,'mechanical');
#379=PRODUCT('WKZ-0100','E_3_01_09_12_00_WKZ-0100',$,(#378));
#380=PRESENTATION_STYLE_ASSIGNMENT((#382));
#381=PRESENTATION_STYLE_ASSIGNMENT((#383));
#382=SURFACE_STYLE_USAGE(.BOTH.,#386);
#383=SURFACE_STYLE_USAGE(.BOTH.,#387);
#384=SURFACE_STYLE_RENDERING_WITH_PROPERTIES($,#394,(#385));
#385=SURFACE_STYLE_TRANSPARENT(0.);
#386=SURFACE_SIDE_STYLE('',(#388,#384));
#387=SURFACE_SIDE_STYLE('',(#389));
#388=SURFACE_STYLE_FILL_AREA(#390);
#389=SURFACE_STYLE_FILL_AREA(#391);
#390=FILL_AREA_STYLE('',(#392));
#391=FILL_AREA_STYLE('',(#393));
#392=FILL_AREA_STYLE_COLOUR('',#394);
#393=FILL_AREA_STYLE_COLOUR('',#395);
#394=COLOUR_RGB('',0.92156862745098,0.92156862745098,0.92156862745098);
#395=COLOUR_RGB('',0.16078431372549,0.16078431372549,0.16078431372549);
ENDSEC;
END-ISO-10303-21;
