ISO-10303-21;
HEADER;
/****************************************************************
 * Generated by software with PDElib inside                    *
 * PDElib Version v51a, created Wed 11/30/2011                  *
 * ITI Transcendata (http://www.transcendata.com/)              *
 ****************************************************************/
FILE_DESCRIPTION((''),'2;1');
FILE_NAME('H:\\Eigene Dateien\\CAD Workspace Vault\\CAD\\E_3_Nocken\\E_3_01_Aufschwei\S\_nocke\\09_Loch\\E_3_01_09_12_00_WKZ-0063.stp','2016-06-13T13:46:11',('dfischer'),(''),'Autodesk Inventor 2013','Autodesk Inventor 2013','');
FILE_SCHEMA(('AUTOMOTIVE_DESIGN { 1 0 10303 214 1 1 1 1 }'));
ENDSEC;
DATA;
#5=APPLICATION_CONTEXT('automotive design');
#6=APPLICATION_PROTOCOL_DEFINITION('International Standard','automotive_design',2001,#5);
#7=PRODUCT_CONTEXT('',#5,'mechanical');
#8=PRODUCT('E_3_01_09_12_00_WKZ-0063','E_3_01_09_12_00_WKZ-0063',$,(#7));
#9=PRODUCT_RELATED_PRODUCT_CATEGORY('part',$,(#8));
#10=PRODUCT_DEFINITION_FORMATION('',$,#8);
#11=PRODUCT_DEFINITION_CONTEXT('part definition',#5,'design');
#12=PRODUCT_DEFINITION('',$,#10,#11);
#18=(NAMED_UNIT(*)PLANE_ANGLE_UNIT()SI_UNIT($,.RADIAN.));
#19=DIMENSIONAL_EXPONENTS(0.0,0.0,0.0,0.0,0.0,0.0,0.0);
#20=PLANE_ANGLE_MEASURE_WITH_UNIT(PLANE_ANGLE_MEASURE(0.0174532925),#18);
#24=(CONVERSION_BASED_UNIT('DEGREE',#20)NAMED_UNIT(#19)PLANE_ANGLE_UNIT());
#28=(NAMED_UNIT(*)SI_UNIT($,.STERADIAN.)SOLID_ANGLE_UNIT());
#32=(LENGTH_UNIT()NAMED_UNIT(*)SI_UNIT(.MILLI.,.METRE.));
#34=UNCERTAINTY_MEASURE_WITH_UNIT(LENGTH_MEASURE(0.01),#32,'DISTANCE_ACCURACY_VALUE','');
#36=(GEOMETRIC_REPRESENTATION_CONTEXT(3)GLOBAL_UNCERTAINTY_ASSIGNED_CONTEXT((#34))GLOBAL_UNIT_ASSIGNED_CONTEXT((#24,#28,#32))REPRESENTATION_CONTEXT('None','None'));
#37=AXIS2_PLACEMENT_3D('',#38,#39,#40);
#38=CARTESIAN_POINT('',(0.0,0.0,0.0));
#39=DIRECTION('',(0.0,0.0,1.0));
#40=DIRECTION('',(1.0,0.0,0.0));
#41=SHAPE_REPRESENTATION('',(#37),#36);
#42=PRODUCT_DEFINITION_SHAPE('','',#12);
#43=SHAPE_DEFINITION_REPRESENTATION(#42,#41);
#49=(NAMED_UNIT(*)PLANE_ANGLE_UNIT()SI_UNIT($,.RADIAN.));
#50=DIMENSIONAL_EXPONENTS(0.0,0.0,0.0,0.0,0.0,0.0,0.0);
#51=PLANE_ANGLE_MEASURE_WITH_UNIT(PLANE_ANGLE_MEASURE(0.0174532925),#49);
#55=(CONVERSION_BASED_UNIT('DEGREE',#51)NAMED_UNIT(#50)PLANE_ANGLE_UNIT());
#59=(NAMED_UNIT(*)SI_UNIT($,.STERADIAN.)SOLID_ANGLE_UNIT());
#63=(LENGTH_UNIT()NAMED_UNIT(*)SI_UNIT(.MILLI.,.METRE.));
#65=UNCERTAINTY_MEASURE_WITH_UNIT(LENGTH_MEASURE(0.000001),#63,'DISTANCE_ACCURACY_VALUE','');
#67=(GEOMETRIC_REPRESENTATION_CONTEXT(3)GLOBAL_UNCERTAINTY_ASSIGNED_CONTEXT((#65))GLOBAL_UNIT_ASSIGNED_CONTEXT((#55,#59,#63))REPRESENTATION_CONTEXT('','3D'));
#68=CARTESIAN_POINT('',(0.0,1.0,0.0));
#69=DIRECTION('',(0.0,0.0,1.0));
#70=DIRECTION('',(-1.0,0.0,0.0));
#71=AXIS2_PLACEMENT_3D('',#68,#69,#70);
#72=CYLINDRICAL_SURFACE('',#71,5.0);
#73=CARTESIAN_POINT('',(5.0,1.0,-12.5));
#74=VERTEX_POINT('',#73);
#75=CARTESIAN_POINT('',(0.0,1.0,-12.5));
#76=DIRECTION('',(0.0,0.0,1.0));
#77=DIRECTION('',(-1.0,0.0,0.0));
#78=AXIS2_PLACEMENT_3D('',#75,#76,#77);
#79=CIRCLE('',#78,5.0);
#80=EDGE_CURVE('',#74,#74,#79,.T.);
#81=ORIENTED_EDGE('',*,*,#80,.F.);
#82=EDGE_LOOP('',(#81));
#83=FACE_OUTER_BOUND('',#82,.T.);
#84=CARTESIAN_POINT('',(5.0,1.0,12.5));
#85=VERTEX_POINT('',#84);
#86=CARTESIAN_POINT('',(0.0,1.0,12.5));
#87=DIRECTION('',(0.0,0.0,-1.0));
#88=DIRECTION('',(-1.0,0.0,0.0));
#89=AXIS2_PLACEMENT_3D('',#86,#87,#88);
#90=CIRCLE('',#89,5.0);
#91=EDGE_CURVE('',#85,#85,#90,.T.);
#92=ORIENTED_EDGE('',*,*,#91,.F.);
#93=EDGE_LOOP('',(#92));
#94=FACE_BOUND('',#93,.T.);
#95=ADVANCED_FACE('',(#83,#94),#72,.F.);
#96=CARTESIAN_POINT('',(1.387779E-016,-1.056779134525841,-12.5));
#97=DIRECTION('',(0.0,0.0,1.0));
#98=DIRECTION('',(1.0,0.0,0.0));
#99=AXIS2_PLACEMENT_3D('',#96,#97,#98);
#100=PLANE('',#99);
#101=CARTESIAN_POINT('',(8.0,0.999999999999995,-12.5));
#102=VERTEX_POINT('',#101);
#103=CARTESIAN_POINT('',(-8.0,0.999999999999994,-12.5));
#104=VERTEX_POINT('',#103);
#105=CARTESIAN_POINT('',(2.220446E-015,0.999999999999997,-12.5));
#106=DIRECTION('',(0.0,0.0,1.0));
#107=DIRECTION('',(0.0,1.0,0.0));
#108=AXIS2_PLACEMENT_3D('',#105,#106,#107);
#109=CIRCLE('',#108,8.000000000000004);
#110=EDGE_CURVE('',#102,#104,#109,.T.);
#111=ORIENTED_EDGE('',*,*,#110,.F.);
#112=CARTESIAN_POINT('',(7.999999999999998,-7.5,-12.5));
#113=VERTEX_POINT('',#112);
#114=CARTESIAN_POINT('',(7.999999999999998,-7.5,-12.5));
#115=DIRECTION('',(0.0,1.0,0.0));
#116=VECTOR('',#115,8.499999999999995);
#117=LINE('',#114,#116);
#118=EDGE_CURVE('',#113,#102,#117,.T.);
#119=ORIENTED_EDGE('',*,*,#118,.F.);
#120=CARTESIAN_POINT('',(4.999999999999998,-7.499999999999999,-12.5));
#121=VERTEX_POINT('',#120);
#122=CARTESIAN_POINT('',(4.999999999999998,-7.499999999999999,-12.5));
#123=DIRECTION('',(1.0,0.0,0.0));
#124=VECTOR('',#123,3.0);
#125=LINE('',#122,#124);
#126=EDGE_CURVE('',#121,#113,#125,.T.);
#127=ORIENTED_EDGE('',*,*,#126,.F.);
#128=CARTESIAN_POINT('',(4.999999999999998,-9.000000000000002,-12.5));
#129=VERTEX_POINT('',#128);
#130=CARTESIAN_POINT('',(4.999999999999998,-9.000000000000002,-12.5));
#131=DIRECTION('',(0.0,1.0,0.0));
#132=VECTOR('',#131,1.500000000000003);
#133=LINE('',#130,#132);
#134=EDGE_CURVE('',#129,#121,#133,.T.);
#135=ORIENTED_EDGE('',*,*,#134,.F.);
#136=CARTESIAN_POINT('',(-4.999999999999998,-9.000000000000002,-12.5));
#137=VERTEX_POINT('',#136);
#138=CARTESIAN_POINT('',(-4.999999999999998,-9.000000000000002,-12.5));
#139=DIRECTION('',(1.0,0.0,0.0));
#140=VECTOR('',#139,9.999999999999996);
#141=LINE('',#138,#140);
#142=EDGE_CURVE('',#137,#129,#141,.T.);
#143=ORIENTED_EDGE('',*,*,#142,.F.);
#144=CARTESIAN_POINT('',(-4.999999999999998,-7.499999999999999,-12.5));
#145=VERTEX_POINT('',#144);
#146=CARTESIAN_POINT('',(-4.999999999999998,-7.499999999999999,-12.5));
#147=DIRECTION('',(0.0,-1.0,0.0));
#148=VECTOR('',#147,1.500000000000003);
#149=LINE('',#146,#148);
#150=EDGE_CURVE('',#145,#137,#149,.T.);
#151=ORIENTED_EDGE('',*,*,#150,.F.);
#152=CARTESIAN_POINT('',(-7.999999999999998,-7.5,-12.5));
#153=VERTEX_POINT('',#152);
#154=CARTESIAN_POINT('',(-7.999999999999998,-7.5,-12.5));
#155=DIRECTION('',(1.0,0.0,0.0));
#156=VECTOR('',#155,3.0);
#157=LINE('',#154,#156);
#158=EDGE_CURVE('',#153,#145,#157,.T.);
#159=ORIENTED_EDGE('',*,*,#158,.F.);
#160=CARTESIAN_POINT('',(-8.0,0.999999999999994,-12.5));
#161=DIRECTION('',(0.0,-1.0,0.0));
#162=VECTOR('',#161,8.499999999999993);
#163=LINE('',#160,#162);
#164=EDGE_CURVE('',#104,#153,#163,.T.);
#165=ORIENTED_EDGE('',*,*,#164,.F.);
#166=EDGE_LOOP('',(#111,#119,#127,#135,#143,#151,#159,#165));
#167=FACE_OUTER_BOUND('',#166,.T.);
#168=ORIENTED_EDGE('',*,*,#80,.T.);
#169=EDGE_LOOP('',(#168));
#170=FACE_BOUND('',#169,.T.);
#171=ADVANCED_FACE('',(#167,#170),#100,.F.);
#172=CARTESIAN_POINT('',(7.999999999999998,-7.5,0.0));
#173=DIRECTION('',(0.0,-1.0,0.0));
#174=DIRECTION('',(0.0,0.0,-1.0));
#175=AXIS2_PLACEMENT_3D('',#172,#173,#174);
#176=PLANE('',#175);
#177=CARTESIAN_POINT('',(7.999999999999998,-7.5,12.5));
#178=VERTEX_POINT('',#177);
#179=CARTESIAN_POINT('',(4.999999999999998,-7.499999999999999,12.5));
#180=VERTEX_POINT('',#179);
#181=CARTESIAN_POINT('',(7.999999999999998,-7.5,12.5));
#182=DIRECTION('',(-1.0,0.0,0.0));
#183=VECTOR('',#182,3.0);
#184=LINE('',#181,#183);
#185=EDGE_CURVE('',#178,#180,#184,.T.);
#186=ORIENTED_EDGE('',*,*,#185,.T.);
#187=CARTESIAN_POINT('',(4.999999999999998,-7.499999999999999,-12.5));
#188=DIRECTION('',(0.0,0.0,1.0));
#189=VECTOR('',#188,25.0);
#190=LINE('',#187,#189);
#191=EDGE_CURVE('',#121,#180,#190,.T.);
#192=ORIENTED_EDGE('',*,*,#191,.F.);
#193=ORIENTED_EDGE('',*,*,#126,.T.);
#194=CARTESIAN_POINT('',(7.999999999999998,-7.5,12.5));
#195=DIRECTION('',(0.0,0.0,-1.0));
#196=VECTOR('',#195,25.0);
#197=LINE('',#194,#196);
#198=EDGE_CURVE('',#178,#113,#197,.T.);
#199=ORIENTED_EDGE('',*,*,#198,.F.);
#200=EDGE_LOOP('',(#186,#192,#193,#199));
#201=FACE_OUTER_BOUND('',#200,.T.);
#202=ADVANCED_FACE('',(#201),#176,.T.);
#203=CARTESIAN_POINT('',(4.999999999999998,-7.499999999999999,0.0));
#204=DIRECTION('',(1.0,0.0,0.0));
#205=DIRECTION('',(0.0,0.0,-1.0));
#206=AXIS2_PLACEMENT_3D('',#203,#204,#205);
#207=PLANE('',#206);
#208=CARTESIAN_POINT('',(4.999999999999998,-9.000000000000002,12.5));
#209=VERTEX_POINT('',#208);
#210=CARTESIAN_POINT('',(4.999999999999998,-7.499999999999999,12.5));
#211=DIRECTION('',(0.0,-1.0,0.0));
#212=VECTOR('',#211,1.500000000000003);
#213=LINE('',#210,#212);
#214=EDGE_CURVE('',#180,#209,#213,.T.);
#215=ORIENTED_EDGE('',*,*,#214,.T.);
#216=CARTESIAN_POINT('',(4.999999999999998,-9.000000000000002,-12.5));
#217=DIRECTION('',(0.0,0.0,1.0));
#218=VECTOR('',#217,25.0);
#219=LINE('',#216,#218);
#220=EDGE_CURVE('',#129,#209,#219,.T.);
#221=ORIENTED_EDGE('',*,*,#220,.F.);
#222=ORIENTED_EDGE('',*,*,#134,.T.);
#223=ORIENTED_EDGE('',*,*,#191,.T.);
#224=EDGE_LOOP('',(#215,#221,#222,#223));
#225=FACE_OUTER_BOUND('',#224,.T.);
#226=ADVANCED_FACE('',(#225),#207,.T.);
#227=CARTESIAN_POINT('',(4.999999999999998,-9.000000000000002,0.0));
#228=DIRECTION('',(0.0,-1.0,0.0));
#229=DIRECTION('',(0.0,0.0,-1.0));
#230=AXIS2_PLACEMENT_3D('',#227,#228,#229);
#231=PLANE('',#230);
#232=CARTESIAN_POINT('',(-4.999999999999998,-9.000000000000002,12.5));
#233=VERTEX_POINT('',#232);
#234=CARTESIAN_POINT('',(4.999999999999998,-9.000000000000002,12.5));
#235=DIRECTION('',(-1.0,0.0,0.0));
#236=VECTOR('',#235,9.999999999999996);
#237=LINE('',#234,#236);
#238=EDGE_CURVE('',#209,#233,#237,.T.);
#239=ORIENTED_EDGE('',*,*,#238,.T.);
#240=CARTESIAN_POINT('',(-4.999999999999998,-9.000000000000002,-12.5));
#241=DIRECTION('',(0.0,0.0,1.0));
#242=VECTOR('',#241,25.0);
#243=LINE('',#240,#242);
#244=EDGE_CURVE('',#137,#233,#243,.T.);
#245=ORIENTED_EDGE('',*,*,#244,.F.);
#246=ORIENTED_EDGE('',*,*,#142,.T.);
#247=ORIENTED_EDGE('',*,*,#220,.T.);
#248=EDGE_LOOP('',(#239,#245,#246,#247));
#249=FACE_OUTER_BOUND('',#248,.T.);
#250=ADVANCED_FACE('',(#249),#231,.T.);
#251=CARTESIAN_POINT('',(-4.999999999999998,-9.000000000000002,0.0));
#252=DIRECTION('',(-1.0,0.0,0.0));
#253=DIRECTION('',(0.0,0.0,1.0));
#254=AXIS2_PLACEMENT_3D('',#251,#252,#253);
#255=PLANE('',#254);
#256=CARTESIAN_POINT('',(-4.999999999999998,-7.499999999999999,12.5));
#257=VERTEX_POINT('',#256);
#258=CARTESIAN_POINT('',(-4.999999999999998,-9.000000000000002,12.5));
#259=DIRECTION('',(0.0,1.0,0.0));
#260=VECTOR('',#259,1.500000000000003);
#261=LINE('',#258,#260);
#262=EDGE_CURVE('',#233,#257,#261,.T.);
#263=ORIENTED_EDGE('',*,*,#262,.T.);
#264=CARTESIAN_POINT('',(-4.999999999999998,-7.499999999999999,-12.5));
#265=DIRECTION('',(0.0,0.0,1.0));
#266=VECTOR('',#265,25.0);
#267=LINE('',#264,#266);
#268=EDGE_CURVE('',#145,#257,#267,.T.);
#269=ORIENTED_EDGE('',*,*,#268,.F.);
#270=ORIENTED_EDGE('',*,*,#150,.T.);
#271=ORIENTED_EDGE('',*,*,#244,.T.);
#272=EDGE_LOOP('',(#263,#269,#270,#271));
#273=FACE_OUTER_BOUND('',#272,.T.);
#274=ADVANCED_FACE('',(#273),#255,.T.);
#275=CARTESIAN_POINT('',(-4.999999999999998,-7.499999999999999,0.0));
#276=DIRECTION('',(0.0,-1.0,0.0));
#277=DIRECTION('',(0.0,0.0,-1.0));
#278=AXIS2_PLACEMENT_3D('',#275,#276,#277);
#279=PLANE('',#278);
#280=CARTESIAN_POINT('',(-7.999999999999998,-7.5,12.5));
#281=VERTEX_POINT('',#280);
#282=CARTESIAN_POINT('',(-4.999999999999998,-7.499999999999999,12.5));
#283=DIRECTION('',(-1.0,0.0,0.0));
#284=VECTOR('',#283,3.0);
#285=LINE('',#282,#284);
#286=EDGE_CURVE('',#257,#281,#285,.T.);
#287=ORIENTED_EDGE('',*,*,#286,.T.);
#288=CARTESIAN_POINT('',(-7.999999999999998,-7.5,-12.5));
#289=DIRECTION('',(0.0,0.0,1.0));
#290=VECTOR('',#289,25.0);
#291=LINE('',#288,#290);
#292=EDGE_CURVE('',#153,#281,#291,.T.);
#293=ORIENTED_EDGE('',*,*,#292,.F.);
#294=ORIENTED_EDGE('',*,*,#158,.T.);
#295=ORIENTED_EDGE('',*,*,#268,.T.);
#296=EDGE_LOOP('',(#287,#293,#294,#295));
#297=FACE_OUTER_BOUND('',#296,.T.);
#298=ADVANCED_FACE('',(#297),#279,.T.);
#299=CARTESIAN_POINT('',(-7.999999999999998,-7.5,0.0));
#300=DIRECTION('',(-1.0,0.0,0.0));
#301=DIRECTION('',(0.0,0.0,1.0));
#302=AXIS2_PLACEMENT_3D('',#299,#300,#301);
#303=PLANE('',#302);
#304=CARTESIAN_POINT('',(-8.0,0.999999999999994,12.5));
#305=VERTEX_POINT('',#304);
#306=CARTESIAN_POINT('',(-7.999999999999998,-7.499999999999999,12.5));
#307=DIRECTION('',(0.0,1.0,0.0));
#308=VECTOR('',#307,8.499999999999993);
#309=LINE('',#306,#308);
#310=EDGE_CURVE('',#281,#305,#309,.T.);
#311=ORIENTED_EDGE('',*,*,#310,.T.);
#312=CARTESIAN_POINT('',(-8.0,0.999999999999994,-12.5));
#313=DIRECTION('',(0.0,0.0,1.0));
#314=VECTOR('',#313,25.0);
#315=LINE('',#312,#314);
#316=EDGE_CURVE('',#104,#305,#315,.T.);
#317=ORIENTED_EDGE('',*,*,#316,.F.);
#318=ORIENTED_EDGE('',*,*,#164,.T.);
#319=ORIENTED_EDGE('',*,*,#292,.T.);
#320=EDGE_LOOP('',(#311,#317,#318,#319));
#321=FACE_OUTER_BOUND('',#320,.T.);
#322=ADVANCED_FACE('',(#321),#303,.T.);
#323=CARTESIAN_POINT('',(5.551115E-016,0.999999999999999,0.0));
#324=DIRECTION('',(0.0,0.0,1.0));
#325=DIRECTION('',(1.0,0.0,0.0));
#326=AXIS2_PLACEMENT_3D('',#323,#324,#325);
#327=CYLINDRICAL_SURFACE('',#326,8.0);
#328=CARTESIAN_POINT('',(8.0,0.999999999999995,12.5));
#329=VERTEX_POINT('',#328);
#330=CARTESIAN_POINT('',(5.551115E-016,0.999999999999999,12.5));
#331=DIRECTION('',(0.0,0.0,-1.0));
#332=DIRECTION('',(1.0,0.0,0.0));
#333=AXIS2_PLACEMENT_3D('',#330,#331,#332);
#334=CIRCLE('',#333,8.0);
#335=EDGE_CURVE('',#305,#329,#334,.T.);
#336=ORIENTED_EDGE('',*,*,#335,.T.);
#337=CARTESIAN_POINT('',(8.0,0.999999999999995,-12.5));
#338=DIRECTION('',(0.0,0.0,1.0));
#339=VECTOR('',#338,25.0);
#340=LINE('',#337,#339);
#341=EDGE_CURVE('',#102,#329,#340,.T.);
#342=ORIENTED_EDGE('',*,*,#341,.F.);
#343=ORIENTED_EDGE('',*,*,#110,.T.);
#344=ORIENTED_EDGE('',*,*,#316,.T.);
#345=EDGE_LOOP('',(#336,#342,#343,#344));
#346=FACE_OUTER_BOUND('',#345,.T.);
#347=ADVANCED_FACE('',(#346),#327,.T.);
#348=CARTESIAN_POINT('',(8.0,0.999999999999995,0.0));
#349=DIRECTION('',(1.0,0.0,0.0));
#350=DIRECTION('',(0.0,0.0,-1.0));
#351=AXIS2_PLACEMENT_3D('',#348,#349,#350);
#352=PLANE('',#351);
#353=CARTESIAN_POINT('',(8.0,0.999999999999995,12.5));
#354=DIRECTION('',(0.0,-1.0,0.0));
#355=VECTOR('',#354,8.499999999999995);
#356=LINE('',#353,#355);
#357=EDGE_CURVE('',#329,#178,#356,.T.);
#358=ORIENTED_EDGE('',*,*,#357,.T.);
#359=ORIENTED_EDGE('',*,*,#198,.T.);
#360=ORIENTED_EDGE('',*,*,#118,.T.);
#361=ORIENTED_EDGE('',*,*,#341,.T.);
#362=EDGE_LOOP('',(#358,#359,#360,#361));
#363=FACE_OUTER_BOUND('',#362,.T.);
#364=ADVANCED_FACE('',(#363),#352,.T.);
#365=CARTESIAN_POINT('',(-6.938894E-017,-1.05677913452584,12.5));
#366=DIRECTION('',(0.0,0.0,1.0));
#367=DIRECTION('',(1.0,0.0,0.0));
#368=AXIS2_PLACEMENT_3D('',#365,#366,#367);
#369=PLANE('',#368);
#370=ORIENTED_EDGE('',*,*,#185,.F.);
#371=ORIENTED_EDGE('',*,*,#357,.F.);
#372=ORIENTED_EDGE('',*,*,#335,.F.);
#373=ORIENTED_EDGE('',*,*,#310,.F.);
#374=ORIENTED_EDGE('',*,*,#286,.F.);
#375=ORIENTED_EDGE('',*,*,#262,.F.);
#376=ORIENTED_EDGE('',*,*,#238,.F.);
#377=ORIENTED_EDGE('',*,*,#214,.F.);
#378=EDGE_LOOP('',(#370,#371,#372,#373,#374,#375,#376,#377));
#379=FACE_OUTER_BOUND('',#378,.T.);
#380=ORIENTED_EDGE('',*,*,#91,.T.);
#381=EDGE_LOOP('',(#380));
#382=FACE_BOUND('',#381,.T.);
#383=ADVANCED_FACE('',(#379,#382),#369,.T.);
#384=CLOSED_SHELL('',(#95,#171,#202,#226,#250,#274,#298,#322,#347,#364,#383));
#385=MANIFOLD_SOLID_BREP('Volumenk\S\vrper1',#384);
#386=COLOUR_RGB('',0.201960995793343,0.201960995793343,0.201960995793343);
#387=FILL_AREA_STYLE_COLOUR('',#386);
#388=FILL_AREA_STYLE('',(#387));
#389=SURFACE_STYLE_FILL_AREA(#388);
#390=SURFACE_SIDE_STYLE('',(#389));
#391=SURFACE_STYLE_USAGE(.BOTH.,#390);
#392=PRESENTATION_STYLE_ASSIGNMENT((#391));
#393=STYLED_ITEM('',(#392),#250);
#394=MECHANICAL_DESIGN_GEOMETRIC_PRESENTATION_REPRESENTATION('',(#393,#402),#67);
#395=COLOUR_RGB('Glatt - wei\X2\FFFD\X0\',0.920000016689301,0.920000016689301,0.920000016689301);
#396=FILL_AREA_STYLE_COLOUR('Glatt - wei\X2\FFFD\X0\',#395);
#397=FILL_AREA_STYLE('Glatt - wei\X2\FFFD\X0\',(#396));
#398=SURFACE_STYLE_FILL_AREA(#397);
#399=SURFACE_SIDE_STYLE('Glatt - wei\X2\FFFD\X0\',(#398));
#400=SURFACE_STYLE_USAGE(.BOTH.,#399);
#401=PRESENTATION_STYLE_ASSIGNMENT((#400));
#402=STYLED_ITEM('',(#401),#385);
#403=ADVANCED_BREP_SHAPE_REPRESENTATION('ABSR',(#385),#36);
#404=SHAPE_REPRESENTATION_RELATIONSHIP('SRR','None',#403,#41);
ENDSEC;
END-ISO-10303-21;
