ISO-10303-21;
HEADER;
/* Generated by software containing ST-Developer
 * from STEP Tools, Inc. (www.steptools.com) 
 */

FILE_DESCRIPTION(
/* description */ (''),
/* implementation_level */ '2;1');

FILE_NAME(
/* name */ 'E_3_01_09_12_00_WKZ-0045.stp',
/* time_stamp */ '2025-11-24T10:28:50+01:00',
/* author */ ('d.fischer'),
/* organization */ (''),
/* preprocessor_version */ 'ST-DEVELOPER v20',
/* originating_system */ 'Autodesk Inventor 2025',
/* authorisation */ '');

FILE_SCHEMA (('AUTOMOTIVE_DESIGN { 1 0 10303 214 3 1 1 }'));
ENDSEC;

DATA;
#10=MECHANICAL_DESIGN_GEOMETRIC_PRESENTATION_REPRESENTATION('',(#14,#15),
#498);
#11=SHAPE_REPRESENTATION_RELATIONSHIP('SRR','None',#505,#12);
#12=ADVANCED_BREP_SHAPE_REPRESENTATION('',(#13),#497);
#13=MANIFOLD_SOLID_BREP('Volumenk\X\F6rper1',#297);
#14=STYLED_ITEM('',(#515),#290);
#15=STYLED_ITEM('',(#514),#13);
#16=FACE_BOUND('',#48,.T.);
#17=FACE_BOUND('',#62,.T.);
#18=PLANE('',#323);
#19=PLANE('',#327);
#20=PLANE('',#328);
#21=PLANE('',#329);
#22=PLANE('',#330);
#23=PLANE('',#331);
#24=PLANE('',#332);
#25=PLANE('',#333);
#26=PLANE('',#334);
#27=PLANE('',#335);
#28=PLANE('',#336);
#29=PLANE('',#337);
#30=PLANE('',#338);
#31=FACE_OUTER_BOUND('',#46,.T.);
#32=FACE_OUTER_BOUND('',#47,.T.);
#33=FACE_OUTER_BOUND('',#49,.T.);
#34=FACE_OUTER_BOUND('',#50,.T.);
#35=FACE_OUTER_BOUND('',#51,.T.);
#36=FACE_OUTER_BOUND('',#52,.T.);
#37=FACE_OUTER_BOUND('',#53,.T.);
#38=FACE_OUTER_BOUND('',#54,.T.);
#39=FACE_OUTER_BOUND('',#55,.T.);
#40=FACE_OUTER_BOUND('',#56,.T.);
#41=FACE_OUTER_BOUND('',#57,.T.);
#42=FACE_OUTER_BOUND('',#58,.T.);
#43=FACE_OUTER_BOUND('',#59,.T.);
#44=FACE_OUTER_BOUND('',#60,.T.);
#45=FACE_OUTER_BOUND('',#61,.T.);
#46=EDGE_LOOP('',(#202,#203,#204,#205));
#47=EDGE_LOOP('',(#206,#207,#208,#209,#210,#211,#212,#213,#214,#215,#216,
#217));
#48=EDGE_LOOP('',(#218));
#49=EDGE_LOOP('',(#219,#220,#221,#222));
#50=EDGE_LOOP('',(#223,#224,#225,#226));
#51=EDGE_LOOP('',(#227,#228,#229,#230));
#52=EDGE_LOOP('',(#231,#232,#233,#234));
#53=EDGE_LOOP('',(#235,#236,#237,#238));
#54=EDGE_LOOP('',(#239,#240,#241,#242));
#55=EDGE_LOOP('',(#243,#244,#245,#246));
#56=EDGE_LOOP('',(#247,#248,#249,#250));
#57=EDGE_LOOP('',(#251,#252,#253,#254));
#58=EDGE_LOOP('',(#255,#256,#257,#258));
#59=EDGE_LOOP('',(#259,#260,#261,#262));
#60=EDGE_LOOP('',(#263,#264,#265,#266));
#61=EDGE_LOOP('',(#267,#268,#269,#270,#271,#272,#273,#274,#275,#276,#277,
#278));
#62=EDGE_LOOP('',(#279));
#63=LINE('',#419,#98);
#64=LINE('',#424,#99);
#65=LINE('',#426,#100);
#66=LINE('',#430,#101);
#67=LINE('',#432,#102);
#68=LINE('',#434,#103);
#69=LINE('',#436,#104);
#70=LINE('',#438,#105);
#71=LINE('',#440,#106);
#72=LINE('',#442,#107);
#73=LINE('',#444,#108);
#74=LINE('',#445,#109);
#75=LINE('',#450,#110);
#76=LINE('',#451,#111);
#77=LINE('',#454,#112);
#78=LINE('',#455,#113);
#79=LINE('',#458,#114);
#80=LINE('',#459,#115);
#81=LINE('',#462,#116);
#82=LINE('',#463,#117);
#83=LINE('',#466,#118);
#84=LINE('',#467,#119);
#85=LINE('',#470,#120);
#86=LINE('',#471,#121);
#87=LINE('',#474,#122);
#88=LINE('',#475,#123);
#89=LINE('',#478,#124);
#90=LINE('',#479,#125);
#91=LINE('',#482,#126);
#92=LINE('',#483,#127);
#93=LINE('',#486,#128);
#94=LINE('',#487,#129);
#95=LINE('',#490,#130);
#96=LINE('',#491,#131);
#97=LINE('',#493,#132);
#98=VECTOR('',#345,2.5);
#99=VECTOR('',#350,10.);
#100=VECTOR('',#351,10.);
#101=VECTOR('',#354,10.);
#102=VECTOR('',#355,10.);
#103=VECTOR('',#356,10.);
#104=VECTOR('',#357,10.);
#105=VECTOR('',#358,10.);
#106=VECTOR('',#359,10.);
#107=VECTOR('',#360,10.);
#108=VECTOR('',#361,10.);
#109=VECTOR('',#362,10.);
#110=VECTOR('',#367,10.);
#111=VECTOR('',#368,10.);
#112=VECTOR('',#371,10.);
#113=VECTOR('',#372,10.);
#114=VECTOR('',#375,10.);
#115=VECTOR('',#376,10.);
#116=VECTOR('',#379,10.);
#117=VECTOR('',#380,10.);
#118=VECTOR('',#383,10.);
#119=VECTOR('',#384,10.);
#120=VECTOR('',#387,10.);
#121=VECTOR('',#388,10.);
#122=VECTOR('',#391,10.);
#123=VECTOR('',#392,10.);
#124=VECTOR('',#395,10.);
#125=VECTOR('',#396,10.);
#126=VECTOR('',#399,10.);
#127=VECTOR('',#400,10.);
#128=VECTOR('',#403,10.);
#129=VECTOR('',#404,10.);
#130=VECTOR('',#407,10.);
#131=VECTOR('',#408,10.);
#132=VECTOR('',#411,10.);
#133=CIRCLE('',#321,2.5);
#134=CIRCLE('',#322,2.5);
#135=CIRCLE('',#324,6.);
#136=CIRCLE('',#326,6.);
#137=VERTEX_POINT('',#416);
#138=VERTEX_POINT('',#418);
#139=VERTEX_POINT('',#422);
#140=VERTEX_POINT('',#423);
#141=VERTEX_POINT('',#425);
#142=VERTEX_POINT('',#427);
#143=VERTEX_POINT('',#429);
#144=VERTEX_POINT('',#431);
#145=VERTEX_POINT('',#433);
#146=VERTEX_POINT('',#435);
#147=VERTEX_POINT('',#437);
#148=VERTEX_POINT('',#439);
#149=VERTEX_POINT('',#441);
#150=VERTEX_POINT('',#443);
#151=VERTEX_POINT('',#447);
#152=VERTEX_POINT('',#448);
#153=VERTEX_POINT('',#453);
#154=VERTEX_POINT('',#457);
#155=VERTEX_POINT('',#461);
#156=VERTEX_POINT('',#465);
#157=VERTEX_POINT('',#469);
#158=VERTEX_POINT('',#473);
#159=VERTEX_POINT('',#477);
#160=VERTEX_POINT('',#481);
#161=VERTEX_POINT('',#485);
#162=VERTEX_POINT('',#489);
#163=EDGE_CURVE('',#137,#137,#133,.T.);
#164=EDGE_CURVE('',#137,#138,#63,.T.);
#165=EDGE_CURVE('',#138,#138,#134,.T.);
#166=EDGE_CURVE('',#139,#140,#64,.T.);
#167=EDGE_CURVE('',#141,#139,#65,.T.);
#168=EDGE_CURVE('',#142,#141,#135,.T.);
#169=EDGE_CURVE('',#143,#142,#66,.T.);
#170=EDGE_CURVE('',#144,#143,#67,.T.);
#171=EDGE_CURVE('',#145,#144,#68,.T.);
#172=EDGE_CURVE('',#146,#145,#69,.T.);
#173=EDGE_CURVE('',#147,#146,#70,.T.);
#174=EDGE_CURVE('',#148,#147,#71,.T.);
#175=EDGE_CURVE('',#149,#148,#72,.T.);
#176=EDGE_CURVE('',#150,#149,#73,.T.);
#177=EDGE_CURVE('',#140,#150,#74,.T.);
#178=EDGE_CURVE('',#151,#152,#136,.T.);
#179=EDGE_CURVE('',#152,#142,#75,.T.);
#180=EDGE_CURVE('',#151,#141,#76,.T.);
#181=EDGE_CURVE('',#152,#153,#77,.T.);
#182=EDGE_CURVE('',#153,#143,#78,.T.);
#183=EDGE_CURVE('',#153,#154,#79,.T.);
#184=EDGE_CURVE('',#154,#144,#80,.T.);
#185=EDGE_CURVE('',#154,#155,#81,.T.);
#186=EDGE_CURVE('',#155,#145,#82,.T.);
#187=EDGE_CURVE('',#155,#156,#83,.T.);
#188=EDGE_CURVE('',#156,#146,#84,.T.);
#189=EDGE_CURVE('',#156,#157,#85,.T.);
#190=EDGE_CURVE('',#157,#147,#86,.T.);
#191=EDGE_CURVE('',#157,#158,#87,.T.);
#192=EDGE_CURVE('',#158,#148,#88,.T.);
#193=EDGE_CURVE('',#158,#159,#89,.T.);
#194=EDGE_CURVE('',#159,#149,#90,.T.);
#195=EDGE_CURVE('',#159,#160,#91,.T.);
#196=EDGE_CURVE('',#160,#150,#92,.T.);
#197=EDGE_CURVE('',#160,#161,#93,.T.);
#198=EDGE_CURVE('',#161,#140,#94,.T.);
#199=EDGE_CURVE('',#161,#162,#95,.T.);
#200=EDGE_CURVE('',#139,#162,#96,.T.);
#201=EDGE_CURVE('',#162,#151,#97,.T.);
#202=ORIENTED_EDGE('',*,*,#163,.F.);
#203=ORIENTED_EDGE('',*,*,#164,.T.);
#204=ORIENTED_EDGE('',*,*,#165,.F.);
#205=ORIENTED_EDGE('',*,*,#164,.F.);
#206=ORIENTED_EDGE('',*,*,#166,.F.);
#207=ORIENTED_EDGE('',*,*,#167,.F.);
#208=ORIENTED_EDGE('',*,*,#168,.F.);
#209=ORIENTED_EDGE('',*,*,#169,.F.);
#210=ORIENTED_EDGE('',*,*,#170,.F.);
#211=ORIENTED_EDGE('',*,*,#171,.F.);
#212=ORIENTED_EDGE('',*,*,#172,.F.);
#213=ORIENTED_EDGE('',*,*,#173,.F.);
#214=ORIENTED_EDGE('',*,*,#174,.F.);
#215=ORIENTED_EDGE('',*,*,#175,.F.);
#216=ORIENTED_EDGE('',*,*,#176,.F.);
#217=ORIENTED_EDGE('',*,*,#177,.F.);
#218=ORIENTED_EDGE('',*,*,#163,.T.);
#219=ORIENTED_EDGE('',*,*,#178,.T.);
#220=ORIENTED_EDGE('',*,*,#179,.T.);
#221=ORIENTED_EDGE('',*,*,#168,.T.);
#222=ORIENTED_EDGE('',*,*,#180,.F.);
#223=ORIENTED_EDGE('',*,*,#181,.T.);
#224=ORIENTED_EDGE('',*,*,#182,.T.);
#225=ORIENTED_EDGE('',*,*,#169,.T.);
#226=ORIENTED_EDGE('',*,*,#179,.F.);
#227=ORIENTED_EDGE('',*,*,#183,.T.);
#228=ORIENTED_EDGE('',*,*,#184,.T.);
#229=ORIENTED_EDGE('',*,*,#170,.T.);
#230=ORIENTED_EDGE('',*,*,#182,.F.);
#231=ORIENTED_EDGE('',*,*,#185,.T.);
#232=ORIENTED_EDGE('',*,*,#186,.T.);
#233=ORIENTED_EDGE('',*,*,#171,.T.);
#234=ORIENTED_EDGE('',*,*,#184,.F.);
#235=ORIENTED_EDGE('',*,*,#187,.T.);
#236=ORIENTED_EDGE('',*,*,#188,.T.);
#237=ORIENTED_EDGE('',*,*,#172,.T.);
#238=ORIENTED_EDGE('',*,*,#186,.F.);
#239=ORIENTED_EDGE('',*,*,#189,.T.);
#240=ORIENTED_EDGE('',*,*,#190,.T.);
#241=ORIENTED_EDGE('',*,*,#173,.T.);
#242=ORIENTED_EDGE('',*,*,#188,.F.);
#243=ORIENTED_EDGE('',*,*,#191,.T.);
#244=ORIENTED_EDGE('',*,*,#192,.T.);
#245=ORIENTED_EDGE('',*,*,#174,.T.);
#246=ORIENTED_EDGE('',*,*,#190,.F.);
#247=ORIENTED_EDGE('',*,*,#193,.T.);
#248=ORIENTED_EDGE('',*,*,#194,.T.);
#249=ORIENTED_EDGE('',*,*,#175,.T.);
#250=ORIENTED_EDGE('',*,*,#192,.F.);
#251=ORIENTED_EDGE('',*,*,#195,.T.);
#252=ORIENTED_EDGE('',*,*,#196,.T.);
#253=ORIENTED_EDGE('',*,*,#176,.T.);
#254=ORIENTED_EDGE('',*,*,#194,.F.);
#255=ORIENTED_EDGE('',*,*,#197,.T.);
#256=ORIENTED_EDGE('',*,*,#198,.T.);
#257=ORIENTED_EDGE('',*,*,#177,.T.);
#258=ORIENTED_EDGE('',*,*,#196,.F.);
#259=ORIENTED_EDGE('',*,*,#199,.T.);
#260=ORIENTED_EDGE('',*,*,#200,.F.);
#261=ORIENTED_EDGE('',*,*,#166,.T.);
#262=ORIENTED_EDGE('',*,*,#198,.F.);
#263=ORIENTED_EDGE('',*,*,#201,.T.);
#264=ORIENTED_EDGE('',*,*,#180,.T.);
#265=ORIENTED_EDGE('',*,*,#167,.T.);
#266=ORIENTED_EDGE('',*,*,#200,.T.);
#267=ORIENTED_EDGE('',*,*,#178,.F.);
#268=ORIENTED_EDGE('',*,*,#201,.F.);
#269=ORIENTED_EDGE('',*,*,#199,.F.);
#270=ORIENTED_EDGE('',*,*,#197,.F.);
#271=ORIENTED_EDGE('',*,*,#195,.F.);
#272=ORIENTED_EDGE('',*,*,#193,.F.);
#273=ORIENTED_EDGE('',*,*,#191,.F.);
#274=ORIENTED_EDGE('',*,*,#189,.F.);
#275=ORIENTED_EDGE('',*,*,#187,.F.);
#276=ORIENTED_EDGE('',*,*,#185,.F.);
#277=ORIENTED_EDGE('',*,*,#183,.F.);
#278=ORIENTED_EDGE('',*,*,#181,.F.);
#279=ORIENTED_EDGE('',*,*,#165,.T.);
#280=CYLINDRICAL_SURFACE('',#320,2.5);
#281=CYLINDRICAL_SURFACE('',#325,6.);
#282=ADVANCED_FACE('',(#31),#280,.F.);
#283=ADVANCED_FACE('',(#32,#16),#18,.F.);
#284=ADVANCED_FACE('',(#33),#281,.T.);
#285=ADVANCED_FACE('',(#34),#19,.T.);
#286=ADVANCED_FACE('',(#35),#20,.T.);
#287=ADVANCED_FACE('',(#36),#21,.T.);
#288=ADVANCED_FACE('',(#37),#22,.T.);
#289=ADVANCED_FACE('',(#38),#23,.T.);
#290=ADVANCED_FACE('',(#39),#24,.T.);
#291=ADVANCED_FACE('',(#40),#25,.T.);
#292=ADVANCED_FACE('',(#41),#26,.T.);
#293=ADVANCED_FACE('',(#42),#27,.T.);
#294=ADVANCED_FACE('',(#43),#28,.T.);
#295=ADVANCED_FACE('',(#44),#29,.T.);
#296=ADVANCED_FACE('',(#45,#17),#30,.T.);
#297=CLOSED_SHELL('',(#282,#283,#284,#285,#286,#287,#288,#289,#290,#291,
#292,#293,#294,#295,#296));
#298=DERIVED_UNIT_ELEMENT(#301,1.);
#299=DERIVED_UNIT_ELEMENT(#500,-3.);
#300=DIMENSIONAL_EXPONENTS(0.,1.,0.,0.,0.,0.,0.);
#301=(
CONVERSION_BASED_UNIT('gram',#303)
MASS_UNIT()
NAMED_UNIT(#300)
);
#302=(
MASS_UNIT()
NAMED_UNIT(*)
SI_UNIT(.KILO.,.GRAM.)
);
#303=MASS_MEASURE_WITH_UNIT(MASS_MEASURE(0.001),#302);
#304=DERIVED_UNIT((#298,#299));
#305=MEASURE_REPRESENTATION_ITEM('density measure',
POSITIVE_RATIO_MEASURE(8.03),#304);
#306=PROPERTY_DEFINITION_REPRESENTATION(#311,#308);
#307=PROPERTY_DEFINITION_REPRESENTATION(#312,#309);
#308=REPRESENTATION('material name',(#310),#497);
#309=REPRESENTATION('density',(#305),#497);
#310=DESCRIPTIVE_REPRESENTATION_ITEM('1.4301','1.4301');
#311=PROPERTY_DEFINITION('material property','material name',#507);
#312=PROPERTY_DEFINITION('material property','density of part',#507);
#313=DATE_TIME_ROLE('creation_date');
#314=APPLIED_DATE_AND_TIME_ASSIGNMENT(#315,#313,(#507));
#315=DATE_AND_TIME(#316,#317);
#316=CALENDAR_DATE(2011,21,10);
#317=LOCAL_TIME(0,0,0.,#318);
#318=COORDINATED_UNIVERSAL_TIME_OFFSET(0,0,.BEHIND.);
#319=AXIS2_PLACEMENT_3D('',#414,#339,#340);
#320=AXIS2_PLACEMENT_3D('',#415,#341,#342);
#321=AXIS2_PLACEMENT_3D('',#417,#343,#344);
#322=AXIS2_PLACEMENT_3D('',#420,#346,#347);
#323=AXIS2_PLACEMENT_3D('',#421,#348,#349);
#324=AXIS2_PLACEMENT_3D('',#428,#352,#353);
#325=AXIS2_PLACEMENT_3D('',#446,#363,#364);
#326=AXIS2_PLACEMENT_3D('',#449,#365,#366);
#327=AXIS2_PLACEMENT_3D('',#452,#369,#370);
#328=AXIS2_PLACEMENT_3D('',#456,#373,#374);
#329=AXIS2_PLACEMENT_3D('',#460,#377,#378);
#330=AXIS2_PLACEMENT_3D('',#464,#381,#382);
#331=AXIS2_PLACEMENT_3D('',#468,#385,#386);
#332=AXIS2_PLACEMENT_3D('',#472,#389,#390);
#333=AXIS2_PLACEMENT_3D('',#476,#393,#394);
#334=AXIS2_PLACEMENT_3D('',#480,#397,#398);
#335=AXIS2_PLACEMENT_3D('',#484,#401,#402);
#336=AXIS2_PLACEMENT_3D('',#488,#405,#406);
#337=AXIS2_PLACEMENT_3D('',#492,#409,#410);
#338=AXIS2_PLACEMENT_3D('',#494,#412,#413);
#339=DIRECTION('axis',(0.,0.,1.));
#340=DIRECTION('refdir',(1.,0.,0.));
#341=DIRECTION('center_axis',(0.,0.,1.));
#342=DIRECTION('ref_axis',(-1.,0.,0.));
#343=DIRECTION('center_axis',(0.,0.,1.));
#344=DIRECTION('ref_axis',(-1.,0.,0.));
#345=DIRECTION('',(0.,0.,1.));
#346=DIRECTION('center_axis',(0.,0.,-1.));
#347=DIRECTION('ref_axis',(-1.,0.,0.));
#348=DIRECTION('center_axis',(0.,0.,1.));
#349=DIRECTION('ref_axis',(1.,0.,0.));
#350=DIRECTION('',(1.,0.,0.));
#351=DIRECTION('',(0.,-1.,0.));
#352=DIRECTION('center_axis',(0.,0.,1.));
#353=DIRECTION('ref_axis',(-1.85037170770859E-16,-1.,0.));
#354=DIRECTION('',(-3.41607084500048E-16,1.,0.));
#355=DIRECTION('',(1.,0.,0.));
#356=DIRECTION('',(-7.40148683083438E-16,-1.,0.));
#357=DIRECTION('',(1.,0.,0.));
#358=DIRECTION('',(0.,1.,0.));
#359=DIRECTION('',(1.,0.,0.));
#360=DIRECTION('',(0.,-1.,0.));
#361=DIRECTION('',(1.,0.,0.));
#362=DIRECTION('',(-7.40148683083438E-16,1.,0.));
#363=DIRECTION('center_axis',(0.,0.,1.));
#364=DIRECTION('ref_axis',(-1.,-1.85037170770859E-16,0.));
#365=DIRECTION('center_axis',(0.,0.,-1.));
#366=DIRECTION('ref_axis',(-1.,-1.85037170770859E-16,0.));
#367=DIRECTION('',(0.,0.,-1.));
#368=DIRECTION('',(0.,0.,-1.));
#369=DIRECTION('center_axis',(1.,3.41607084500048E-16,0.));
#370=DIRECTION('ref_axis',(0.,0.,-1.));
#371=DIRECTION('',(3.41607084500048E-16,-1.,0.));
#372=DIRECTION('',(0.,0.,-1.));
#373=DIRECTION('center_axis',(0.,-1.,0.));
#374=DIRECTION('ref_axis',(0.,0.,-1.));
#375=DIRECTION('',(-1.,0.,0.));
#376=DIRECTION('',(0.,0.,-1.));
#377=DIRECTION('center_axis',(-1.,7.40148683083438E-16,0.));
#378=DIRECTION('ref_axis',(0.,0.,1.));
#379=DIRECTION('',(7.40148683083438E-16,1.,0.));
#380=DIRECTION('',(0.,0.,-1.));
#381=DIRECTION('center_axis',(0.,-1.,0.));
#382=DIRECTION('ref_axis',(0.,0.,-1.));
#383=DIRECTION('',(-1.,0.,0.));
#384=DIRECTION('',(0.,0.,-1.));
#385=DIRECTION('center_axis',(1.,0.,0.));
#386=DIRECTION('ref_axis',(0.,0.,-1.));
#387=DIRECTION('',(0.,-1.,0.));
#388=DIRECTION('',(0.,0.,-1.));
#389=DIRECTION('center_axis',(0.,-1.,0.));
#390=DIRECTION('ref_axis',(0.,0.,-1.));
#391=DIRECTION('',(-1.,0.,0.));
#392=DIRECTION('',(0.,0.,-1.));
#393=DIRECTION('center_axis',(-1.,0.,0.));
#394=DIRECTION('ref_axis',(0.,0.,1.));
#395=DIRECTION('',(0.,1.,0.));
#396=DIRECTION('',(0.,0.,-1.));
#397=DIRECTION('center_axis',(0.,-1.,0.));
#398=DIRECTION('ref_axis',(0.,0.,-1.));
#399=DIRECTION('',(-1.,0.,0.));
#400=DIRECTION('',(0.,0.,-1.));
#401=DIRECTION('center_axis',(1.,7.40148683083438E-16,0.));
#402=DIRECTION('ref_axis',(0.,0.,-1.));
#403=DIRECTION('',(7.40148683083438E-16,-1.,0.));
#404=DIRECTION('',(0.,0.,-1.));
#405=DIRECTION('center_axis',(0.,-1.,0.));
#406=DIRECTION('ref_axis',(0.,0.,-1.));
#407=DIRECTION('',(-1.,0.,0.));
#408=DIRECTION('',(0.,0.,1.));
#409=DIRECTION('center_axis',(-1.,0.,0.));
#410=DIRECTION('ref_axis',(0.,0.,1.));
#411=DIRECTION('',(0.,1.,0.));
#412=DIRECTION('center_axis',(0.,0.,1.));
#413=DIRECTION('ref_axis',(1.,0.,0.));
#414=CARTESIAN_POINT('',(0.,0.,0.));
#415=CARTESIAN_POINT('Origin',(0.,0.250000000000001,0.));
#416=CARTESIAN_POINT('',(2.5,0.250000000000002,-25.));
#417=CARTESIAN_POINT('Origin',(0.,0.250000000000001,-25.));
#418=CARTESIAN_POINT('',(2.5,0.250000000000002,25.));
#419=CARTESIAN_POINT('',(2.5,0.250000000000002,0.));
#420=CARTESIAN_POINT('Origin',(0.,0.250000000000001,25.));
#421=CARTESIAN_POINT('Origin',(-9.0205620750794E-16,-1.32051163270635,-25.));
#422=CARTESIAN_POINT('',(-6.,-6.25,-25.));
#423=CARTESIAN_POINT('',(-4.75,-6.25,-25.));
#424=CARTESIAN_POINT('',(-4.75,-6.25,-25.));
#425=CARTESIAN_POINT('',(-6.,0.250000000000004,-25.));
#426=CARTESIAN_POINT('',(-6.,-6.25,-25.));
#427=CARTESIAN_POINT('',(6.,0.250000000000002,-25.));
#428=CARTESIAN_POINT('Origin',(-4.44089209850063E-15,0.250000000000004,
-25.));
#429=CARTESIAN_POINT('',(6.,-6.25,-25.));
#430=CARTESIAN_POINT('',(6.,0.250000000000002,-25.));
#431=CARTESIAN_POINT('',(4.75,-6.25,-25.));
#432=CARTESIAN_POINT('',(6.,-6.25,-25.));
#433=CARTESIAN_POINT('',(4.75,-4.75,-25.));
#434=CARTESIAN_POINT('',(4.75,-6.25,-25.));
#435=CARTESIAN_POINT('',(2.75,-4.75,-25.));
#436=CARTESIAN_POINT('',(4.75,-4.75,-25.));
#437=CARTESIAN_POINT('',(2.75,-6.25,-25.));
#438=CARTESIAN_POINT('',(2.75,-4.75,-25.));
#439=CARTESIAN_POINT('',(-2.75,-6.25,-25.));
#440=CARTESIAN_POINT('',(2.75,-6.25,-25.));
#441=CARTESIAN_POINT('',(-2.75,-4.75,-25.));
#442=CARTESIAN_POINT('',(-2.75,-6.25,-25.));
#443=CARTESIAN_POINT('',(-4.75,-4.75,-25.));
#444=CARTESIAN_POINT('',(-2.75,-4.75,-25.));
#445=CARTESIAN_POINT('',(-4.75,-4.75,-25.));
#446=CARTESIAN_POINT('Origin',(-2.77555756156289E-16,0.250000000000001,
0.));
#447=CARTESIAN_POINT('',(-6.,0.250000000000004,25.));
#448=CARTESIAN_POINT('',(6.,0.250000000000002,25.));
#449=CARTESIAN_POINT('Origin',(-2.77555756156289E-16,0.250000000000001,
25.));
#450=CARTESIAN_POINT('',(6.,0.250000000000002,0.));
#451=CARTESIAN_POINT('',(-6.,0.250000000000004,0.));
#452=CARTESIAN_POINT('Origin',(6.,0.250000000000002,0.));
#453=CARTESIAN_POINT('',(6.,-6.25,25.));
#454=CARTESIAN_POINT('',(6.,0.250000000000002,25.));
#455=CARTESIAN_POINT('',(6.,-6.25,0.));
#456=CARTESIAN_POINT('Origin',(6.,-6.25,0.));
#457=CARTESIAN_POINT('',(4.75,-6.25,25.));
#458=CARTESIAN_POINT('',(6.,-6.25,25.));
#459=CARTESIAN_POINT('',(4.75,-6.25,0.));
#460=CARTESIAN_POINT('Origin',(4.75,-6.25,0.));
#461=CARTESIAN_POINT('',(4.75,-4.75,25.));
#462=CARTESIAN_POINT('',(4.75,-6.25,25.));
#463=CARTESIAN_POINT('',(4.75,-4.75,0.));
#464=CARTESIAN_POINT('Origin',(4.75,-4.75,0.));
#465=CARTESIAN_POINT('',(2.75,-4.75,25.));
#466=CARTESIAN_POINT('',(4.75,-4.75,25.));
#467=CARTESIAN_POINT('',(2.75,-4.75,0.));
#468=CARTESIAN_POINT('Origin',(2.75,-4.75,0.));
#469=CARTESIAN_POINT('',(2.75,-6.25,25.));
#470=CARTESIAN_POINT('',(2.75,-4.75,25.));
#471=CARTESIAN_POINT('',(2.75,-6.25,0.));
#472=CARTESIAN_POINT('Origin',(2.75,-6.25,0.));
#473=CARTESIAN_POINT('',(-2.75,-6.25,25.));
#474=CARTESIAN_POINT('',(2.75,-6.25,25.));
#475=CARTESIAN_POINT('',(-2.75,-6.25,0.));
#476=CARTESIAN_POINT('Origin',(-2.75,-6.25,0.));
#477=CARTESIAN_POINT('',(-2.75,-4.75,25.));
#478=CARTESIAN_POINT('',(-2.75,-6.25,25.));
#479=CARTESIAN_POINT('',(-2.75,-4.75,0.));
#480=CARTESIAN_POINT('Origin',(-2.75,-4.75,0.));
#481=CARTESIAN_POINT('',(-4.75,-4.75,25.));
#482=CARTESIAN_POINT('',(-2.75,-4.75,25.));
#483=CARTESIAN_POINT('',(-4.75,-4.75,0.));
#484=CARTESIAN_POINT('Origin',(-4.75,-4.75,0.));
#485=CARTESIAN_POINT('',(-4.75,-6.25,25.));
#486=CARTESIAN_POINT('',(-4.75,-4.75,25.));
#487=CARTESIAN_POINT('',(-4.75,-6.25,0.));
#488=CARTESIAN_POINT('Origin',(-4.75,-6.25,0.));
#489=CARTESIAN_POINT('',(-6.,-6.25,25.));
#490=CARTESIAN_POINT('',(-4.75,-6.25,25.));
#491=CARTESIAN_POINT('',(-6.,-6.25,0.));
#492=CARTESIAN_POINT('Origin',(-6.,-6.25,0.));
#493=CARTESIAN_POINT('',(-6.,-6.25,25.));
#494=CARTESIAN_POINT('Origin',(-6.93889390390723E-16,-1.32051163270635,
25.));
#495=UNCERTAINTY_MEASURE_WITH_UNIT(LENGTH_MEASURE(0.01),#499,
'DISTANCE_ACCURACY_VALUE',
'Maximum model space distance between geometric entities at asserted c
onnectivities');
#496=UNCERTAINTY_MEASURE_WITH_UNIT(LENGTH_MEASURE(0.01),#499,
'DISTANCE_ACCURACY_VALUE',
'Maximum model space distance between geometric entities at asserted c
onnectivities');
#497=(
GEOMETRIC_REPRESENTATION_CONTEXT(3)
GLOBAL_UNCERTAINTY_ASSIGNED_CONTEXT((#495))
GLOBAL_UNIT_ASSIGNED_CONTEXT((#499,#501,#502))
REPRESENTATION_CONTEXT('','3D')
);
#498=(
GEOMETRIC_REPRESENTATION_CONTEXT(3)
GLOBAL_UNCERTAINTY_ASSIGNED_CONTEXT((#496))
GLOBAL_UNIT_ASSIGNED_CONTEXT((#499,#501,#502))
REPRESENTATION_CONTEXT('','3D')
);
#499=(
LENGTH_UNIT()
NAMED_UNIT(*)
SI_UNIT(.MILLI.,.METRE.)
);
#500=(
LENGTH_UNIT()
NAMED_UNIT(*)
SI_UNIT(.CENTI.,.METRE.)
);
#501=(
NAMED_UNIT(*)
PLANE_ANGLE_UNIT()
SI_UNIT($,.RADIAN.)
);
#502=(
NAMED_UNIT(*)
SI_UNIT($,.STERADIAN.)
SOLID_ANGLE_UNIT()
);
#503=SHAPE_DEFINITION_REPRESENTATION(#504,#505);
#504=PRODUCT_DEFINITION_SHAPE('',$,#507);
#505=SHAPE_REPRESENTATION('',(#319),#497);
#506=PRODUCT_DEFINITION_CONTEXT('part definition',#511,'design');
#507=PRODUCT_DEFINITION('WKZ-0045','E_3_01_09_12_00_WKZ-0045',#508,#506);
#508=PRODUCT_DEFINITION_FORMATION('',$,#513);
#509=PRODUCT_RELATED_PRODUCT_CATEGORY('E_3_01_09_12_00_WKZ-0045',
'E_3_01_09_12_00_WKZ-0045',(#513));
#510=APPLICATION_PROTOCOL_DEFINITION('international standard',
'automotive_design',2009,#511);
#511=APPLICATION_CONTEXT(
'Core Data for Automotive Mechanical Design Process');
#512=PRODUCT_CONTEXT('part definition',#511,'mechanical');
#513=PRODUCT('WKZ-0045','E_3_01_09_12_00_WKZ-0045',$,(#512));
#514=PRESENTATION_STYLE_ASSIGNMENT((#516));
#515=PRESENTATION_STYLE_ASSIGNMENT((#517));
#516=SURFACE_STYLE_USAGE(.BOTH.,#520);
#517=SURFACE_STYLE_USAGE(.BOTH.,#521);
#518=SURFACE_STYLE_RENDERING_WITH_PROPERTIES($,#528,(#519));
#519=SURFACE_STYLE_TRANSPARENT(0.);
#520=SURFACE_SIDE_STYLE('',(#522,#518));
#521=SURFACE_SIDE_STYLE('',(#523));
#522=SURFACE_STYLE_FILL_AREA(#524);
#523=SURFACE_STYLE_FILL_AREA(#525);
#524=FILL_AREA_STYLE('',(#526));
#525=FILL_AREA_STYLE('',(#527));
#526=FILL_AREA_STYLE_COLOUR('',#528);
#527=FILL_AREA_STYLE_COLOUR('',#529);
#528=COLOUR_RGB('',0.92156862745098,0.92156862745098,0.92156862745098);
#529=COLOUR_RGB('',0.16078431372549,0.16078431372549,0.16078431372549);
ENDSEC;
END-ISO-10303-21;
