ISO-10303-21;
HEADER;
/* Generated by software containing ST-Developer
 * from STEP Tools, Inc. (www.steptools.com) 
 */

FILE_DESCRIPTION(
/* description */ (''),
/* implementation_level */ '2;1');

FILE_NAME(
/* name */ 
'H:\\Eigene Dateien\\CAD Workspace Vault\\CAD\\E_3_Nocken\\E_3_01_Aufs
chwei\X\DFnocke\\09_Loch\\E_3_01_09_12_00_WKZ-0035.stp',
/* time_stamp */ '2024-06-07T13:23:12+02:00',
/* author */ ('DFischer'),
/* organization */ (''),
/* preprocessor_version */ 'ST-DEVELOPER v18.1',
/* originating_system */ 'Autodesk Inventor 2021',
/* authorisation */ '');

FILE_SCHEMA (('AUTOMOTIVE_DESIGN { 1 0 10303 214 3 1 1 }'));
ENDSEC;

DATA;
#10=MECHANICAL_DESIGN_GEOMETRIC_PRESENTATION_REPRESENTATION('',(#14,#15),
#231);
#11=SHAPE_REPRESENTATION_RELATIONSHIP('SRR','None',#238,#12);
#12=ADVANCED_BREP_SHAPE_REPRESENTATION('',(#13),#230);
#13=MANIFOLD_SOLID_BREP('Volumenk\X\F6rper1',#129);
#14=STYLED_ITEM('',(#248),#127);
#15=STYLED_ITEM('',(#247),#13);
#16=FACE_BOUND('',#32,.T.);
#17=FACE_BOUND('',#38,.T.);
#18=PLANE('',#152);
#19=PLANE('',#154);
#20=PLANE('',#157);
#21=PLANE('',#158);
#22=PLANE('',#159);
#23=FACE_OUTER_BOUND('',#30,.T.);
#24=FACE_OUTER_BOUND('',#31,.T.);
#25=FACE_OUTER_BOUND('',#33,.T.);
#26=FACE_OUTER_BOUND('',#34,.T.);
#27=FACE_OUTER_BOUND('',#35,.T.);
#28=FACE_OUTER_BOUND('',#36,.T.);
#29=FACE_OUTER_BOUND('',#37,.T.);
#30=EDGE_LOOP('',(#90,#91,#92,#93));
#31=EDGE_LOOP('',(#94,#95,#96,#97));
#32=EDGE_LOOP('',(#98));
#33=EDGE_LOOP('',(#99,#100,#101,#102));
#34=EDGE_LOOP('',(#103,#104,#105,#106));
#35=EDGE_LOOP('',(#107,#108,#109,#110));
#36=EDGE_LOOP('',(#111,#112,#113,#114));
#37=EDGE_LOOP('',(#115,#116,#117,#118));
#38=EDGE_LOOP('',(#119));
#39=LINE('',#200,#50);
#40=LINE('',#205,#51);
#41=LINE('',#207,#52);
#42=LINE('',#209,#53);
#43=LINE('',#214,#54);
#44=LINE('',#215,#55);
#45=LINE('',#216,#56);
#46=LINE('',#220,#57);
#47=LINE('',#223,#58);
#48=LINE('',#224,#59);
#49=LINE('',#226,#60);
#50=VECTOR('',#166,2.55);
#51=VECTOR('',#171,10.);
#52=VECTOR('',#172,10.);
#53=VECTOR('',#173,10.);
#54=VECTOR('',#178,10.);
#55=VECTOR('',#179,10.);
#56=VECTOR('',#180,10.);
#57=VECTOR('',#185,10.);
#58=VECTOR('',#188,10.);
#59=VECTOR('',#189,10.);
#60=VECTOR('',#192,10.);
#61=CIRCLE('',#150,2.55);
#62=CIRCLE('',#151,2.55);
#63=CIRCLE('',#153,6.);
#64=CIRCLE('',#156,6.);
#65=VERTEX_POINT('',#197);
#66=VERTEX_POINT('',#199);
#67=VERTEX_POINT('',#203);
#68=VERTEX_POINT('',#204);
#69=VERTEX_POINT('',#206);
#70=VERTEX_POINT('',#208);
#71=VERTEX_POINT('',#212);
#72=VERTEX_POINT('',#213);
#73=VERTEX_POINT('',#218);
#74=VERTEX_POINT('',#222);
#75=EDGE_CURVE('',#65,#65,#61,.T.);
#76=EDGE_CURVE('',#65,#66,#39,.T.);
#77=EDGE_CURVE('',#66,#66,#62,.T.);
#78=EDGE_CURVE('',#67,#68,#40,.T.);
#79=EDGE_CURVE('',#69,#67,#41,.T.);
#80=EDGE_CURVE('',#70,#69,#42,.T.);
#81=EDGE_CURVE('',#68,#70,#63,.T.);
#82=EDGE_CURVE('',#71,#72,#43,.T.);
#83=EDGE_CURVE('',#70,#72,#44,.T.);
#84=EDGE_CURVE('',#71,#69,#45,.T.);
#85=EDGE_CURVE('',#72,#73,#64,.T.);
#86=EDGE_CURVE('',#68,#73,#46,.T.);
#87=EDGE_CURVE('',#73,#74,#47,.T.);
#88=EDGE_CURVE('',#67,#74,#48,.T.);
#89=EDGE_CURVE('',#74,#71,#49,.T.);
#90=ORIENTED_EDGE('',*,*,#75,.F.);
#91=ORIENTED_EDGE('',*,*,#76,.T.);
#92=ORIENTED_EDGE('',*,*,#77,.F.);
#93=ORIENTED_EDGE('',*,*,#76,.F.);
#94=ORIENTED_EDGE('',*,*,#78,.F.);
#95=ORIENTED_EDGE('',*,*,#79,.F.);
#96=ORIENTED_EDGE('',*,*,#80,.F.);
#97=ORIENTED_EDGE('',*,*,#81,.F.);
#98=ORIENTED_EDGE('',*,*,#75,.T.);
#99=ORIENTED_EDGE('',*,*,#82,.T.);
#100=ORIENTED_EDGE('',*,*,#83,.F.);
#101=ORIENTED_EDGE('',*,*,#80,.T.);
#102=ORIENTED_EDGE('',*,*,#84,.F.);
#103=ORIENTED_EDGE('',*,*,#85,.T.);
#104=ORIENTED_EDGE('',*,*,#86,.F.);
#105=ORIENTED_EDGE('',*,*,#81,.T.);
#106=ORIENTED_EDGE('',*,*,#83,.T.);
#107=ORIENTED_EDGE('',*,*,#87,.T.);
#108=ORIENTED_EDGE('',*,*,#88,.F.);
#109=ORIENTED_EDGE('',*,*,#78,.T.);
#110=ORIENTED_EDGE('',*,*,#86,.T.);
#111=ORIENTED_EDGE('',*,*,#89,.T.);
#112=ORIENTED_EDGE('',*,*,#84,.T.);
#113=ORIENTED_EDGE('',*,*,#79,.T.);
#114=ORIENTED_EDGE('',*,*,#88,.T.);
#115=ORIENTED_EDGE('',*,*,#82,.F.);
#116=ORIENTED_EDGE('',*,*,#89,.F.);
#117=ORIENTED_EDGE('',*,*,#87,.F.);
#118=ORIENTED_EDGE('',*,*,#85,.F.);
#119=ORIENTED_EDGE('',*,*,#77,.T.);
#120=CYLINDRICAL_SURFACE('',#149,2.55);
#121=CYLINDRICAL_SURFACE('',#155,6.);
#122=ADVANCED_FACE('',(#23),#120,.F.);
#123=ADVANCED_FACE('',(#24,#16),#18,.F.);
#124=ADVANCED_FACE('',(#25),#19,.T.);
#125=ADVANCED_FACE('',(#26),#121,.T.);
#126=ADVANCED_FACE('',(#27),#20,.T.);
#127=ADVANCED_FACE('',(#28),#21,.T.);
#128=ADVANCED_FACE('',(#29,#17),#22,.T.);
#129=CLOSED_SHELL('',(#122,#123,#124,#125,#126,#127,#128));
#130=DERIVED_UNIT_ELEMENT(#132,1.);
#131=DERIVED_UNIT_ELEMENT(#233,3.);
#132=(
MASS_UNIT()
NAMED_UNIT(*)
SI_UNIT($,.GRAM.)
);
#133=DERIVED_UNIT((#130,#131));
#134=MEASURE_REPRESENTATION_ITEM('density measure',
POSITIVE_RATIO_MEASURE(8.03),#133);
#135=PROPERTY_DEFINITION_REPRESENTATION(#140,#137);
#136=PROPERTY_DEFINITION_REPRESENTATION(#141,#138);
#137=REPRESENTATION('material name',(#139),#230);
#138=REPRESENTATION('density',(#134),#230);
#139=DESCRIPTIVE_REPRESENTATION_ITEM('1.4301','1.4301');
#140=PROPERTY_DEFINITION('material property','material name',#240);
#141=PROPERTY_DEFINITION('material property','density of part',#240);
#142=DATE_TIME_ROLE('creation_date');
#143=APPLIED_DATE_AND_TIME_ASSIGNMENT(#144,#142,(#240));
#144=DATE_AND_TIME(#145,#146);
#145=CALENDAR_DATE(2011,19,10);
#146=LOCAL_TIME(0,0,0.,#147);
#147=COORDINATED_UNIVERSAL_TIME_OFFSET(0,0,.BEHIND.);
#148=AXIS2_PLACEMENT_3D('placement',#195,#160,#161);
#149=AXIS2_PLACEMENT_3D('',#196,#162,#163);
#150=AXIS2_PLACEMENT_3D('',#198,#164,#165);
#151=AXIS2_PLACEMENT_3D('',#201,#167,#168);
#152=AXIS2_PLACEMENT_3D('',#202,#169,#170);
#153=AXIS2_PLACEMENT_3D('',#210,#174,#175);
#154=AXIS2_PLACEMENT_3D('',#211,#176,#177);
#155=AXIS2_PLACEMENT_3D('',#217,#181,#182);
#156=AXIS2_PLACEMENT_3D('',#219,#183,#184);
#157=AXIS2_PLACEMENT_3D('',#221,#186,#187);
#158=AXIS2_PLACEMENT_3D('',#225,#190,#191);
#159=AXIS2_PLACEMENT_3D('',#227,#193,#194);
#160=DIRECTION('axis',(0.,0.,1.));
#161=DIRECTION('refdir',(1.,0.,0.));
#162=DIRECTION('center_axis',(0.,0.,1.));
#163=DIRECTION('ref_axis',(-1.,0.,0.));
#164=DIRECTION('center_axis',(0.,0.,1.));
#165=DIRECTION('ref_axis',(-1.,0.,0.));
#166=DIRECTION('',(0.,0.,1.));
#167=DIRECTION('center_axis',(0.,0.,-1.));
#168=DIRECTION('ref_axis',(-1.,0.,0.));
#169=DIRECTION('center_axis',(0.,0.,1.));
#170=DIRECTION('ref_axis',(1.,0.,0.));
#171=DIRECTION('',(-2.77555756156289E-16,1.,0.));
#172=DIRECTION('',(1.,1.85037170770859E-16,0.));
#173=DIRECTION('',(0.,-1.,0.));
#174=DIRECTION('center_axis',(0.,0.,1.));
#175=DIRECTION('ref_axis',(3.70074341541719E-16,1.,0.));
#176=DIRECTION('center_axis',(-1.,0.,0.));
#177=DIRECTION('ref_axis',(0.,0.,1.));
#178=DIRECTION('',(0.,1.,0.));
#179=DIRECTION('',(0.,0.,1.));
#180=DIRECTION('',(0.,0.,-1.));
#181=DIRECTION('center_axis',(0.,0.,1.));
#182=DIRECTION('ref_axis',(1.,-1.85037170770859E-16,0.));
#183=DIRECTION('center_axis',(0.,0.,-1.));
#184=DIRECTION('ref_axis',(1.,-1.85037170770859E-16,0.));
#185=DIRECTION('',(0.,0.,1.));
#186=DIRECTION('center_axis',(1.,2.77555756156289E-16,0.));
#187=DIRECTION('ref_axis',(0.,0.,-1.));
#188=DIRECTION('',(2.77555756156289E-16,-1.,0.));
#189=DIRECTION('',(0.,0.,1.));
#190=DIRECTION('center_axis',(1.85037170770859E-16,-1.,0.));
#191=DIRECTION('ref_axis',(0.,0.,-1.));
#192=DIRECTION('',(-1.,-1.85037170770859E-16,0.));
#193=DIRECTION('center_axis',(0.,0.,1.));
#194=DIRECTION('ref_axis',(1.,0.,0.));
#195=CARTESIAN_POINT('',(0.,0.,0.));
#196=CARTESIAN_POINT('Origin',(0.,1.,0.));
#197=CARTESIAN_POINT('',(2.55,1.,-50.));
#198=CARTESIAN_POINT('Origin',(0.,1.,-50.));
#199=CARTESIAN_POINT('',(2.55,1.,50.));
#200=CARTESIAN_POINT('',(2.55,1.,0.));
#201=CARTESIAN_POINT('Origin',(0.,1.,50.));
#202=CARTESIAN_POINT('Origin',(1.38777878078145E-15,-0.911209310286276,
-50.));
#203=CARTESIAN_POINT('',(6.,-7.,-50.));
#204=CARTESIAN_POINT('',(6.,1.,-50.));
#205=CARTESIAN_POINT('',(6.,-7.,-50.));
#206=CARTESIAN_POINT('',(-6.,-7.,-50.));
#207=CARTESIAN_POINT('',(-6.,-7.,-50.));
#208=CARTESIAN_POINT('',(-6.,0.999999999999999,-50.));
#209=CARTESIAN_POINT('',(-6.,0.999999999999999,-50.));
#210=CARTESIAN_POINT('Origin',(0.,1.,-50.));
#211=CARTESIAN_POINT('Origin',(-6.,-7.,0.));
#212=CARTESIAN_POINT('',(-6.,-7.,50.));
#213=CARTESIAN_POINT('',(-6.,0.999999999999999,50.));
#214=CARTESIAN_POINT('',(-6.,0.999999999999999,50.));
#215=CARTESIAN_POINT('',(-6.,0.999999999999999,0.));
#216=CARTESIAN_POINT('',(-6.,-7.,0.));
#217=CARTESIAN_POINT('Origin',(1.38777878078145E-15,1.,0.));
#218=CARTESIAN_POINT('',(6.,1.,50.));
#219=CARTESIAN_POINT('Origin',(1.38777878078145E-15,1.,50.));
#220=CARTESIAN_POINT('',(6.,1.,0.));
#221=CARTESIAN_POINT('Origin',(6.,1.,0.));
#222=CARTESIAN_POINT('',(6.,-7.,50.));
#223=CARTESIAN_POINT('',(6.,-7.,50.));
#224=CARTESIAN_POINT('',(6.,-7.,0.));
#225=CARTESIAN_POINT('Origin',(6.,-7.,0.));
#226=CARTESIAN_POINT('',(-6.,-7.,50.));
#227=CARTESIAN_POINT('Origin',(1.2490009027033E-15,-0.911209310286276,50.));
#228=UNCERTAINTY_MEASURE_WITH_UNIT(LENGTH_MEASURE(0.01),#232,
'DISTANCE_ACCURACY_VALUE',
'Maximum model space distance between geometric entities at asserted c
onnectivities');
#229=UNCERTAINTY_MEASURE_WITH_UNIT(LENGTH_MEASURE(0.01),#232,
'DISTANCE_ACCURACY_VALUE',
'Maximum model space distance between geometric entities at asserted c
onnectivities');
#230=(
GEOMETRIC_REPRESENTATION_CONTEXT(3)
GLOBAL_UNCERTAINTY_ASSIGNED_CONTEXT((#228))
GLOBAL_UNIT_ASSIGNED_CONTEXT((#232,#234,#235))
REPRESENTATION_CONTEXT('','3D')
);
#231=(
GEOMETRIC_REPRESENTATION_CONTEXT(3)
GLOBAL_UNCERTAINTY_ASSIGNED_CONTEXT((#229))
GLOBAL_UNIT_ASSIGNED_CONTEXT((#232,#234,#235))
REPRESENTATION_CONTEXT('','3D')
);
#232=(
LENGTH_UNIT()
NAMED_UNIT(*)
SI_UNIT(.MILLI.,.METRE.)
);
#233=(
LENGTH_UNIT()
NAMED_UNIT(*)
SI_UNIT(.CENTI.,.METRE.)
);
#234=(
NAMED_UNIT(*)
PLANE_ANGLE_UNIT()
SI_UNIT($,.RADIAN.)
);
#235=(
NAMED_UNIT(*)
SI_UNIT($,.STERADIAN.)
SOLID_ANGLE_UNIT()
);
#236=SHAPE_DEFINITION_REPRESENTATION(#237,#238);
#237=PRODUCT_DEFINITION_SHAPE('',$,#240);
#238=SHAPE_REPRESENTATION('',(#148),#230);
#239=PRODUCT_DEFINITION_CONTEXT('part definition',#244,'design');
#240=PRODUCT_DEFINITION('E_3_01_09_12_00_WKZ-0035',
'E_3_01_09_12_00_WKZ-0035',#241,#239);
#241=PRODUCT_DEFINITION_FORMATION('',$,#246);
#242=PRODUCT_RELATED_PRODUCT_CATEGORY('E_3_01_09_12_00_WKZ-0035',
'E_3_01_09_12_00_WKZ-0035',(#246));
#243=APPLICATION_PROTOCOL_DEFINITION('international standard',
'automotive_design',2009,#244);
#244=APPLICATION_CONTEXT(
'Core Data for Automotive Mechanical Design Process');
#245=PRODUCT_CONTEXT('part definition',#244,'mechanical');
#246=PRODUCT('E_3_01_09_12_00_WKZ-0035','E_3_01_09_12_00_WKZ-0035',$,(#245));
#247=PRESENTATION_STYLE_ASSIGNMENT((#249));
#248=PRESENTATION_STYLE_ASSIGNMENT((#250));
#249=SURFACE_STYLE_USAGE(.BOTH.,#255);
#250=SURFACE_STYLE_USAGE(.BOTH.,#256);
#251=SURFACE_STYLE_RENDERING_WITH_PROPERTIES($,#263,(#253));
#252=SURFACE_STYLE_RENDERING_WITH_PROPERTIES($,#264,(#254));
#253=SURFACE_STYLE_TRANSPARENT(0.);
#254=SURFACE_STYLE_TRANSPARENT(0.);
#255=SURFACE_SIDE_STYLE('',(#257,#251));
#256=SURFACE_SIDE_STYLE('',(#258,#252));
#257=SURFACE_STYLE_FILL_AREA(#259);
#258=SURFACE_STYLE_FILL_AREA(#260);
#259=FILL_AREA_STYLE('',(#261));
#260=FILL_AREA_STYLE('',(#262));
#261=FILL_AREA_STYLE_COLOUR('',#263);
#262=FILL_AREA_STYLE_COLOUR('',#264);
#263=COLOUR_RGB('',0.92156862745098,0.92156862745098,0.92156862745098);
#264=COLOUR_RGB('',0.0392156862745098,0.0392156862745098,0.0392156862745098);
ENDSEC;
END-ISO-10303-21;
