ISO-10303-21;
HEADER;
/* Generated by software containing ST-Developer
 * from STEP Tools, Inc. (www.steptools.com) 
 */

FILE_DESCRIPTION(
/* description */ (''),
/* implementation_level */ '2;1');

FILE_NAME(
/* name */ 'E_3_01_08_00_00_WKZ-0073.stp',
/* time_stamp */ '2025-11-24T11:14:42+01:00',
/* author */ ('d.fischer'),
/* organization */ (''),
/* preprocessor_version */ 'ST-DEVELOPER v20',
/* originating_system */ 'Autodesk Inventor 2025',
/* authorisation */ '');

FILE_SCHEMA (('AUTOMOTIVE_DESIGN { 1 0 10303 214 3 1 1 }'));
ENDSEC;

DATA;
#10=MECHANICAL_DESIGN_GEOMETRIC_PRESENTATION_REPRESENTATION('',(#14,#15),
#160);
#11=SHAPE_REPRESENTATION_RELATIONSHIP('SRR','None',#167,#12);
#12=ADVANCED_BREP_SHAPE_REPRESENTATION('',(#13),#159);
#13=MANIFOLD_SOLID_BREP('Volumenk\X\F6rper1',#87);
#14=STYLED_ITEM('',(#177),#85);
#15=STYLED_ITEM('',(#176),#13);
#16=FACE_OUTER_BOUND('',#21,.T.);
#17=FACE_OUTER_BOUND('',#22,.T.);
#18=FACE_OUTER_BOUND('',#23,.T.);
#19=FACE_OUTER_BOUND('',#24,.T.);
#20=FACE_OUTER_BOUND('',#25,.T.);
#21=EDGE_LOOP('',(#59,#60,#61));
#22=EDGE_LOOP('',(#62,#63,#64,#65));
#23=EDGE_LOOP('',(#66,#67,#68,#69));
#24=EDGE_LOOP('',(#70,#71,#72,#73));
#25=EDGE_LOOP('',(#74,#75,#76));
#26=LINE('',#140,#35);
#27=LINE('',#142,#36);
#28=LINE('',#143,#37);
#29=LINE('',#147,#38);
#30=LINE('',#148,#39);
#31=LINE('',#149,#40);
#32=LINE('',#152,#41);
#33=LINE('',#153,#42);
#34=LINE('',#155,#43);
#35=VECTOR('',#119,10.);
#36=VECTOR('',#120,10.);
#37=VECTOR('',#121,10.);
#38=VECTOR('',#124,10.);
#39=VECTOR('',#125,10.);
#40=VECTOR('',#126,10.);
#41=VECTOR('',#129,10.);
#42=VECTOR('',#130,10.);
#43=VECTOR('',#133,10.);
#44=VERTEX_POINT('',#138);
#45=VERTEX_POINT('',#139);
#46=VERTEX_POINT('',#141);
#47=VERTEX_POINT('',#145);
#48=VERTEX_POINT('',#146);
#49=VERTEX_POINT('',#151);
#50=EDGE_CURVE('',#44,#45,#26,.T.);
#51=EDGE_CURVE('',#46,#44,#27,.T.);
#52=EDGE_CURVE('',#45,#46,#28,.T.);
#53=EDGE_CURVE('',#47,#48,#29,.T.);
#54=EDGE_CURVE('',#48,#45,#30,.T.);
#55=EDGE_CURVE('',#47,#46,#31,.T.);
#56=EDGE_CURVE('',#48,#49,#32,.T.);
#57=EDGE_CURVE('',#44,#49,#33,.T.);
#58=EDGE_CURVE('',#49,#47,#34,.T.);
#59=ORIENTED_EDGE('',*,*,#50,.F.);
#60=ORIENTED_EDGE('',*,*,#51,.F.);
#61=ORIENTED_EDGE('',*,*,#52,.F.);
#62=ORIENTED_EDGE('',*,*,#53,.T.);
#63=ORIENTED_EDGE('',*,*,#54,.T.);
#64=ORIENTED_EDGE('',*,*,#52,.T.);
#65=ORIENTED_EDGE('',*,*,#55,.F.);
#66=ORIENTED_EDGE('',*,*,#56,.T.);
#67=ORIENTED_EDGE('',*,*,#57,.F.);
#68=ORIENTED_EDGE('',*,*,#50,.T.);
#69=ORIENTED_EDGE('',*,*,#54,.F.);
#70=ORIENTED_EDGE('',*,*,#58,.T.);
#71=ORIENTED_EDGE('',*,*,#55,.T.);
#72=ORIENTED_EDGE('',*,*,#51,.T.);
#73=ORIENTED_EDGE('',*,*,#57,.T.);
#74=ORIENTED_EDGE('',*,*,#53,.F.);
#75=ORIENTED_EDGE('',*,*,#58,.F.);
#76=ORIENTED_EDGE('',*,*,#56,.F.);
#77=PLANE('',#110);
#78=PLANE('',#111);
#79=PLANE('',#112);
#80=PLANE('',#113);
#81=PLANE('',#114);
#82=ADVANCED_FACE('',(#16),#77,.F.);
#83=ADVANCED_FACE('',(#17),#78,.T.);
#84=ADVANCED_FACE('',(#18),#79,.T.);
#85=ADVANCED_FACE('',(#19),#80,.T.);
#86=ADVANCED_FACE('',(#20),#81,.T.);
#87=CLOSED_SHELL('',(#82,#83,#84,#85,#86));
#88=DERIVED_UNIT_ELEMENT(#91,1.);
#89=DERIVED_UNIT_ELEMENT(#162,-3.);
#90=DIMENSIONAL_EXPONENTS(0.,1.,0.,0.,0.,0.,0.);
#91=(
CONVERSION_BASED_UNIT('gram',#93)
MASS_UNIT()
NAMED_UNIT(#90)
);
#92=(
MASS_UNIT()
NAMED_UNIT(*)
SI_UNIT(.KILO.,.GRAM.)
);
#93=MASS_MEASURE_WITH_UNIT(MASS_MEASURE(0.001),#92);
#94=DERIVED_UNIT((#88,#89));
#95=MEASURE_REPRESENTATION_ITEM('density measure',
POSITIVE_RATIO_MEASURE(8.03),#94);
#96=PROPERTY_DEFINITION_REPRESENTATION(#101,#98);
#97=PROPERTY_DEFINITION_REPRESENTATION(#102,#99);
#98=REPRESENTATION('material name',(#100),#159);
#99=REPRESENTATION('density',(#95),#159);
#100=DESCRIPTIVE_REPRESENTATION_ITEM('1.4301','1.4301');
#101=PROPERTY_DEFINITION('material property','material name',#169);
#102=PROPERTY_DEFINITION('material property','density of part',#169);
#103=DATE_TIME_ROLE('creation_date');
#104=APPLIED_DATE_AND_TIME_ASSIGNMENT(#105,#103,(#169));
#105=DATE_AND_TIME(#106,#107);
#106=CALENDAR_DATE(2011,20,10);
#107=LOCAL_TIME(0,0,0.,#108);
#108=COORDINATED_UNIVERSAL_TIME_OFFSET(0,0,.BEHIND.);
#109=AXIS2_PLACEMENT_3D('',#136,#115,#116);
#110=AXIS2_PLACEMENT_3D('',#137,#117,#118);
#111=AXIS2_PLACEMENT_3D('',#144,#122,#123);
#112=AXIS2_PLACEMENT_3D('',#150,#127,#128);
#113=AXIS2_PLACEMENT_3D('',#154,#131,#132);
#114=AXIS2_PLACEMENT_3D('',#156,#134,#135);
#115=DIRECTION('axis',(0.,0.,1.));
#116=DIRECTION('refdir',(1.,0.,0.));
#117=DIRECTION('center_axis',(0.,0.,1.));
#118=DIRECTION('ref_axis',(1.,0.,0.));
#119=DIRECTION('',(-0.524097425664335,0.851658316704544,0.));
#120=DIRECTION('',(1.,3.62049212340354E-16,0.));
#121=DIRECTION('',(-0.524097425664334,-0.851658316704544,0.));
#122=DIRECTION('center_axis',(-0.851658316704544,0.524097425664335,0.));
#123=DIRECTION('ref_axis',(0.,0.,1.));
#124=DIRECTION('',(0.524097425664334,0.851658316704544,0.));
#125=DIRECTION('',(0.,0.,-1.));
#126=DIRECTION('',(0.,0.,-1.));
#127=DIRECTION('center_axis',(0.851658316704544,0.524097425664335,0.));
#128=DIRECTION('ref_axis',(0.,0.,-1.));
#129=DIRECTION('',(0.524097425664335,-0.851658316704544,0.));
#130=DIRECTION('',(0.,0.,1.));
#131=DIRECTION('center_axis',(3.62049212340354E-16,-1.,0.));
#132=DIRECTION('ref_axis',(0.,0.,-1.));
#133=DIRECTION('',(-1.,-3.62049212340354E-16,0.));
#134=DIRECTION('center_axis',(0.,0.,1.));
#135=DIRECTION('ref_axis',(1.,0.,0.));
#136=CARTESIAN_POINT('',(0.,0.,0.));
#137=CARTESIAN_POINT('Origin',(-4.,2.13240961192712,-50.));
#138=CARTESIAN_POINT('',(0.,0.,-50.));
#139=CARTESIAN_POINT('',(-4.,6.5,-50.));
#140=CARTESIAN_POINT('',(-4.,6.5,-50.));
#141=CARTESIAN_POINT('',(-8.,-2.89639369872283E-15,-50.));
#142=CARTESIAN_POINT('',(0.,0.,-50.));
#143=CARTESIAN_POINT('',(-8.,-3.33066907387547E-15,-50.));
#144=CARTESIAN_POINT('Origin',(-8.,-2.89639369872283E-15,0.));
#145=CARTESIAN_POINT('',(-8.,-2.89639369872283E-15,50.));
#146=CARTESIAN_POINT('',(-4.,6.5,50.));
#147=CARTESIAN_POINT('',(-8.,-3.33066907387547E-15,50.));
#148=CARTESIAN_POINT('',(-4.,6.5,0.));
#149=CARTESIAN_POINT('',(-8.,-2.89639369872283E-15,0.));
#150=CARTESIAN_POINT('Origin',(-4.,6.5,0.));
#151=CARTESIAN_POINT('',(0.,0.,50.));
#152=CARTESIAN_POINT('',(-4.,6.5,50.));
#153=CARTESIAN_POINT('',(0.,0.,0.));
#154=CARTESIAN_POINT('Origin',(0.,0.,0.));
#155=CARTESIAN_POINT('',(0.,0.,50.));
#156=CARTESIAN_POINT('Origin',(-4.,2.13240961192712,50.));
#157=UNCERTAINTY_MEASURE_WITH_UNIT(LENGTH_MEASURE(0.01),#161,
'DISTANCE_ACCURACY_VALUE',
'Maximum model space distance between geometric entities at asserted c
onnectivities');
#158=UNCERTAINTY_MEASURE_WITH_UNIT(LENGTH_MEASURE(0.01),#161,
'DISTANCE_ACCURACY_VALUE',
'Maximum model space distance between geometric entities at asserted c
onnectivities');
#159=(
GEOMETRIC_REPRESENTATION_CONTEXT(3)
GLOBAL_UNCERTAINTY_ASSIGNED_CONTEXT((#157))
GLOBAL_UNIT_ASSIGNED_CONTEXT((#161,#163,#164))
REPRESENTATION_CONTEXT('','3D')
);
#160=(
GEOMETRIC_REPRESENTATION_CONTEXT(3)
GLOBAL_UNCERTAINTY_ASSIGNED_CONTEXT((#158))
GLOBAL_UNIT_ASSIGNED_CONTEXT((#161,#163,#164))
REPRESENTATION_CONTEXT('','3D')
);
#161=(
LENGTH_UNIT()
NAMED_UNIT(*)
SI_UNIT(.MILLI.,.METRE.)
);
#162=(
LENGTH_UNIT()
NAMED_UNIT(*)
SI_UNIT(.CENTI.,.METRE.)
);
#163=(
NAMED_UNIT(*)
PLANE_ANGLE_UNIT()
SI_UNIT($,.RADIAN.)
);
#164=(
NAMED_UNIT(*)
SI_UNIT($,.STERADIAN.)
SOLID_ANGLE_UNIT()
);
#165=SHAPE_DEFINITION_REPRESENTATION(#166,#167);
#166=PRODUCT_DEFINITION_SHAPE('',$,#169);
#167=SHAPE_REPRESENTATION('',(#109),#159);
#168=PRODUCT_DEFINITION_CONTEXT('part definition',#173,'design');
#169=PRODUCT_DEFINITION('WKZ-0073','E_3_01_08_00_00_WKZ-0073',#170,#168);
#170=PRODUCT_DEFINITION_FORMATION('',$,#175);
#171=PRODUCT_RELATED_PRODUCT_CATEGORY('E_3_01_08_00_00_WKZ-0073',
'E_3_01_08_00_00_WKZ-0073',(#175));
#172=APPLICATION_PROTOCOL_DEFINITION('international standard',
'automotive_design',2009,#173);
#173=APPLICATION_CONTEXT(
'Core Data for Automotive Mechanical Design Process');
#174=PRODUCT_CONTEXT('part definition',#173,'mechanical');
#175=PRODUCT('WKZ-0073','E_3_01_08_00_00_WKZ-0073',$,(#174));
#176=PRESENTATION_STYLE_ASSIGNMENT((#178));
#177=PRESENTATION_STYLE_ASSIGNMENT((#179));
#178=SURFACE_STYLE_USAGE(.BOTH.,#182);
#179=SURFACE_STYLE_USAGE(.BOTH.,#183);
#180=SURFACE_STYLE_RENDERING_WITH_PROPERTIES($,#190,(#181));
#181=SURFACE_STYLE_TRANSPARENT(0.);
#182=SURFACE_SIDE_STYLE('',(#184,#180));
#183=SURFACE_SIDE_STYLE('',(#185));
#184=SURFACE_STYLE_FILL_AREA(#186);
#185=SURFACE_STYLE_FILL_AREA(#187);
#186=FILL_AREA_STYLE('',(#188));
#187=FILL_AREA_STYLE('',(#189));
#188=FILL_AREA_STYLE_COLOUR('',#190);
#189=FILL_AREA_STYLE_COLOUR('',#191);
#190=COLOUR_RGB('',0.92156862745098,0.92156862745098,0.92156862745098);
#191=COLOUR_RGB('',0.16078431372549,0.16078431372549,0.16078431372549);
ENDSEC;
END-ISO-10303-21;
