ISO-10303-21;
HEADER;
/* Generated by software containing ST-Developer
 * from STEP Tools, Inc. (www.steptools.com) 
 */

FILE_DESCRIPTION(
/* description */ (''),
/* implementation_level */ '2;1');

FILE_NAME(
/* name */ 'E_3_01_07_10_00_WKZ-0069.stp',
/* time_stamp */ '2025-11-24T11:11:45+01:00',
/* author */ ('d.fischer'),
/* organization */ (''),
/* preprocessor_version */ 'ST-DEVELOPER v20',
/* originating_system */ 'Autodesk Inventor 2025',
/* authorisation */ '');

FILE_SCHEMA (('AUTOMOTIVE_DESIGN { 1 0 10303 214 3 1 1 }'));
ENDSEC;

DATA;
#10=MECHANICAL_DESIGN_GEOMETRIC_PRESENTATION_REPRESENTATION('',(#14,#15),
#195);
#11=SHAPE_REPRESENTATION_RELATIONSHIP('SRR','None',#202,#12);
#12=ADVANCED_BREP_SHAPE_REPRESENTATION('',(#13),#194);
#13=MANIFOLD_SOLID_BREP('Volumenk\X\F6rper1',#106);
#14=STYLED_ITEM('',(#212),#104);
#15=STYLED_ITEM('',(#211),#13);
#16=PLANE('',#132);
#17=PLANE('',#133);
#18=PLANE('',#134);
#19=PLANE('',#135);
#20=PLANE('',#136);
#21=FACE_OUTER_BOUND('',#27,.T.);
#22=FACE_OUTER_BOUND('',#28,.T.);
#23=FACE_OUTER_BOUND('',#29,.T.);
#24=FACE_OUTER_BOUND('',#30,.T.);
#25=FACE_OUTER_BOUND('',#31,.T.);
#26=FACE_OUTER_BOUND('',#32,.T.);
#27=EDGE_LOOP('',(#75,#76,#77,#78));
#28=EDGE_LOOP('',(#79,#80,#81,#82));
#29=EDGE_LOOP('',(#83,#84,#85,#86));
#30=EDGE_LOOP('',(#87,#88,#89,#90));
#31=EDGE_LOOP('',(#91,#92,#93,#94));
#32=EDGE_LOOP('',(#95,#96,#97,#98));
#33=LINE('',#171,#43);
#34=LINE('',#174,#44);
#35=LINE('',#177,#45);
#36=LINE('',#179,#46);
#37=LINE('',#180,#47);
#38=LINE('',#183,#48);
#39=LINE('',#185,#49);
#40=LINE('',#186,#50);
#41=LINE('',#188,#51);
#42=LINE('',#189,#52);
#43=VECTOR('',#143,10.);
#44=VECTOR('',#146,10.);
#45=VECTOR('',#149,10.);
#46=VECTOR('',#150,10.);
#47=VECTOR('',#151,10.);
#48=VECTOR('',#154,10.);
#49=VECTOR('',#155,10.);
#50=VECTOR('',#156,10.);
#51=VECTOR('',#159,10.);
#52=VECTOR('',#160,10.);
#53=CIRCLE('',#130,30.);
#54=CIRCLE('',#131,30.);
#55=VERTEX_POINT('',#167);
#56=VERTEX_POINT('',#168);
#57=VERTEX_POINT('',#170);
#58=VERTEX_POINT('',#172);
#59=VERTEX_POINT('',#176);
#60=VERTEX_POINT('',#178);
#61=VERTEX_POINT('',#182);
#62=VERTEX_POINT('',#184);
#63=EDGE_CURVE('',#55,#56,#53,.T.);
#64=EDGE_CURVE('',#57,#56,#33,.T.);
#65=EDGE_CURVE('',#58,#57,#54,.T.);
#66=EDGE_CURVE('',#58,#55,#34,.T.);
#67=EDGE_CURVE('',#56,#59,#35,.T.);
#68=EDGE_CURVE('',#60,#59,#36,.T.);
#69=EDGE_CURVE('',#57,#60,#37,.T.);
#70=EDGE_CURVE('',#59,#61,#38,.T.);
#71=EDGE_CURVE('',#62,#61,#39,.T.);
#72=EDGE_CURVE('',#60,#62,#40,.T.);
#73=EDGE_CURVE('',#61,#55,#41,.T.);
#74=EDGE_CURVE('',#62,#58,#42,.T.);
#75=ORIENTED_EDGE('',*,*,#63,.T.);
#76=ORIENTED_EDGE('',*,*,#64,.F.);
#77=ORIENTED_EDGE('',*,*,#65,.F.);
#78=ORIENTED_EDGE('',*,*,#66,.T.);
#79=ORIENTED_EDGE('',*,*,#67,.T.);
#80=ORIENTED_EDGE('',*,*,#68,.F.);
#81=ORIENTED_EDGE('',*,*,#69,.F.);
#82=ORIENTED_EDGE('',*,*,#64,.T.);
#83=ORIENTED_EDGE('',*,*,#70,.T.);
#84=ORIENTED_EDGE('',*,*,#71,.F.);
#85=ORIENTED_EDGE('',*,*,#72,.F.);
#86=ORIENTED_EDGE('',*,*,#68,.T.);
#87=ORIENTED_EDGE('',*,*,#73,.T.);
#88=ORIENTED_EDGE('',*,*,#66,.F.);
#89=ORIENTED_EDGE('',*,*,#74,.F.);
#90=ORIENTED_EDGE('',*,*,#71,.T.);
#91=ORIENTED_EDGE('',*,*,#63,.F.);
#92=ORIENTED_EDGE('',*,*,#73,.F.);
#93=ORIENTED_EDGE('',*,*,#70,.F.);
#94=ORIENTED_EDGE('',*,*,#67,.F.);
#95=ORIENTED_EDGE('',*,*,#74,.T.);
#96=ORIENTED_EDGE('',*,*,#65,.T.);
#97=ORIENTED_EDGE('',*,*,#69,.T.);
#98=ORIENTED_EDGE('',*,*,#72,.T.);
#99=CYLINDRICAL_SURFACE('',#129,30.);
#100=ADVANCED_FACE('',(#21),#99,.T.);
#101=ADVANCED_FACE('',(#22),#16,.T.);
#102=ADVANCED_FACE('',(#23),#17,.T.);
#103=ADVANCED_FACE('',(#24),#18,.T.);
#104=ADVANCED_FACE('',(#25),#19,.T.);
#105=ADVANCED_FACE('',(#26),#20,.F.);
#106=CLOSED_SHELL('',(#100,#101,#102,#103,#104,#105));
#107=DERIVED_UNIT_ELEMENT(#110,1.);
#108=DERIVED_UNIT_ELEMENT(#197,-3.);
#109=DIMENSIONAL_EXPONENTS(0.,1.,0.,0.,0.,0.,0.);
#110=(
CONVERSION_BASED_UNIT('gram',#112)
MASS_UNIT()
NAMED_UNIT(#109)
);
#111=(
MASS_UNIT()
NAMED_UNIT(*)
SI_UNIT(.KILO.,.GRAM.)
);
#112=MASS_MEASURE_WITH_UNIT(MASS_MEASURE(0.001),#111);
#113=DERIVED_UNIT((#107,#108));
#114=MEASURE_REPRESENTATION_ITEM('density measure',
POSITIVE_RATIO_MEASURE(8.03),#113);
#115=PROPERTY_DEFINITION_REPRESENTATION(#120,#117);
#116=PROPERTY_DEFINITION_REPRESENTATION(#121,#118);
#117=REPRESENTATION('material name',(#119),#194);
#118=REPRESENTATION('density',(#114),#194);
#119=DESCRIPTIVE_REPRESENTATION_ITEM('1.4301','1.4301');
#120=PROPERTY_DEFINITION('material property','material name',#204);
#121=PROPERTY_DEFINITION('material property','density of part',#204);
#122=DATE_TIME_ROLE('creation_date');
#123=APPLIED_DATE_AND_TIME_ASSIGNMENT(#124,#122,(#204));
#124=DATE_AND_TIME(#125,#126);
#125=CALENDAR_DATE(2011,17,10);
#126=LOCAL_TIME(0,0,0.,#127);
#127=COORDINATED_UNIVERSAL_TIME_OFFSET(0,0,.BEHIND.);
#128=AXIS2_PLACEMENT_3D('',#165,#137,#138);
#129=AXIS2_PLACEMENT_3D('',#166,#139,#140);
#130=AXIS2_PLACEMENT_3D('',#169,#141,#142);
#131=AXIS2_PLACEMENT_3D('',#173,#144,#145);
#132=AXIS2_PLACEMENT_3D('',#175,#147,#148);
#133=AXIS2_PLACEMENT_3D('',#181,#152,#153);
#134=AXIS2_PLACEMENT_3D('',#187,#157,#158);
#135=AXIS2_PLACEMENT_3D('',#190,#161,#162);
#136=AXIS2_PLACEMENT_3D('',#191,#163,#164);
#137=DIRECTION('axis',(0.,0.,1.));
#138=DIRECTION('refdir',(1.,0.,0.));
#139=DIRECTION('center_axis',(0.,0.,1.));
#140=DIRECTION('ref_axis',(-0.533333333333333,-0.845905169363301,0.));
#141=DIRECTION('center_axis',(0.,0.,-1.));
#142=DIRECTION('ref_axis',(-0.533333333333333,-0.845905169363301,0.));
#143=DIRECTION('',(0.,0.,1.));
#144=DIRECTION('center_axis',(0.,0.,-1.));
#145=DIRECTION('ref_axis',(-0.533333333333333,-0.845905169363301,0.));
#146=DIRECTION('',(0.,0.,1.));
#147=DIRECTION('center_axis',(1.,0.,0.));
#148=DIRECTION('ref_axis',(0.,0.,-1.));
#149=DIRECTION('',(0.,-1.,0.));
#150=DIRECTION('',(0.,0.,1.));
#151=DIRECTION('',(0.,-1.,0.));
#152=DIRECTION('center_axis',(2.77555756156289E-16,-1.,0.));
#153=DIRECTION('ref_axis',(0.,0.,-1.));
#154=DIRECTION('',(-1.,-2.77555756156289E-16,0.));
#155=DIRECTION('',(0.,0.,1.));
#156=DIRECTION('',(-1.,-2.77555756156289E-16,0.));
#157=DIRECTION('center_axis',(-1.,-5.0728064421109E-16,0.));
#158=DIRECTION('ref_axis',(0.,0.,1.));
#159=DIRECTION('',(-5.0728064421109E-16,1.,0.));
#160=DIRECTION('',(-5.0728064421109E-16,1.,0.));
#161=DIRECTION('center_axis',(0.,0.,1.));
#162=DIRECTION('ref_axis',(1.,0.,0.));
#163=DIRECTION('center_axis',(0.,0.,1.));
#164=DIRECTION('ref_axis',(1.,0.,0.));
#165=CARTESIAN_POINT('',(0.,0.,0.));
#166=CARTESIAN_POINT('Origin',(0.,0.,0.));
#167=CARTESIAN_POINT('',(-16.,25.377155080899,30.));
#168=CARTESIAN_POINT('',(16.,25.377155080899,30.));
#169=CARTESIAN_POINT('Origin',(0.,0.,30.));
#170=CARTESIAN_POINT('',(16.,25.377155080899,0.));
#171=CARTESIAN_POINT('',(16.,25.377155080899,0.));
#172=CARTESIAN_POINT('',(-16.,25.377155080899,0.));
#173=CARTESIAN_POINT('Origin',(0.,0.,0.));
#174=CARTESIAN_POINT('',(-16.,25.377155080899,0.));
#175=CARTESIAN_POINT('Origin',(16.,25.377155080899,0.));
#176=CARTESIAN_POINT('',(16.,21.,30.));
#177=CARTESIAN_POINT('',(16.,25.377155080899,30.));
#178=CARTESIAN_POINT('',(16.,21.,0.));
#179=CARTESIAN_POINT('',(16.,21.,0.));
#180=CARTESIAN_POINT('',(16.,25.377155080899,0.));
#181=CARTESIAN_POINT('Origin',(16.,21.,0.));
#182=CARTESIAN_POINT('',(-16.,21.,30.));
#183=CARTESIAN_POINT('',(16.,21.,30.));
#184=CARTESIAN_POINT('',(-16.,21.,0.));
#185=CARTESIAN_POINT('',(-16.,21.,0.));
#186=CARTESIAN_POINT('',(16.,21.,0.));
#187=CARTESIAN_POINT('Origin',(-16.,21.,0.));
#188=CARTESIAN_POINT('',(-16.,21.,30.));
#189=CARTESIAN_POINT('',(-16.,21.,0.));
#190=CARTESIAN_POINT('Origin',(-3.05633706686843E-15,24.4901266267516,30.));
#191=CARTESIAN_POINT('Origin',(-3.08741480107847E-15,24.4901266267516,0.));
#192=UNCERTAINTY_MEASURE_WITH_UNIT(LENGTH_MEASURE(0.01),#196,
'DISTANCE_ACCURACY_VALUE',
'Maximum model space distance between geometric entities at asserted c
onnectivities');
#193=UNCERTAINTY_MEASURE_WITH_UNIT(LENGTH_MEASURE(0.01),#196,
'DISTANCE_ACCURACY_VALUE',
'Maximum model space distance between geometric entities at asserted c
onnectivities');
#194=(
GEOMETRIC_REPRESENTATION_CONTEXT(3)
GLOBAL_UNCERTAINTY_ASSIGNED_CONTEXT((#192))
GLOBAL_UNIT_ASSIGNED_CONTEXT((#196,#198,#199))
REPRESENTATION_CONTEXT('','3D')
);
#195=(
GEOMETRIC_REPRESENTATION_CONTEXT(3)
GLOBAL_UNCERTAINTY_ASSIGNED_CONTEXT((#193))
GLOBAL_UNIT_ASSIGNED_CONTEXT((#196,#198,#199))
REPRESENTATION_CONTEXT('','3D')
);
#196=(
LENGTH_UNIT()
NAMED_UNIT(*)
SI_UNIT(.MILLI.,.METRE.)
);
#197=(
LENGTH_UNIT()
NAMED_UNIT(*)
SI_UNIT(.CENTI.,.METRE.)
);
#198=(
NAMED_UNIT(*)
PLANE_ANGLE_UNIT()
SI_UNIT($,.RADIAN.)
);
#199=(
NAMED_UNIT(*)
SI_UNIT($,.STERADIAN.)
SOLID_ANGLE_UNIT()
);
#200=SHAPE_DEFINITION_REPRESENTATION(#201,#202);
#201=PRODUCT_DEFINITION_SHAPE('',$,#204);
#202=SHAPE_REPRESENTATION('',(#128),#194);
#203=PRODUCT_DEFINITION_CONTEXT('part definition',#208,'design');
#204=PRODUCT_DEFINITION('WKZ-0069','E_3_01_07_10_00_WKZ-0069',#205,#203);
#205=PRODUCT_DEFINITION_FORMATION('',$,#210);
#206=PRODUCT_RELATED_PRODUCT_CATEGORY('E_3_01_07_10_00_WKZ-0069',
'E_3_01_07_10_00_WKZ-0069',(#210));
#207=APPLICATION_PROTOCOL_DEFINITION('international standard',
'automotive_design',2009,#208);
#208=APPLICATION_CONTEXT(
'Core Data for Automotive Mechanical Design Process');
#209=PRODUCT_CONTEXT('part definition',#208,'mechanical');
#210=PRODUCT('WKZ-0069','E_3_01_07_10_00_WKZ-0069',$,(#209));
#211=PRESENTATION_STYLE_ASSIGNMENT((#213));
#212=PRESENTATION_STYLE_ASSIGNMENT((#214));
#213=SURFACE_STYLE_USAGE(.BOTH.,#217);
#214=SURFACE_STYLE_USAGE(.BOTH.,#218);
#215=SURFACE_STYLE_RENDERING_WITH_PROPERTIES($,#225,(#216));
#216=SURFACE_STYLE_TRANSPARENT(0.);
#217=SURFACE_SIDE_STYLE('',(#219,#215));
#218=SURFACE_SIDE_STYLE('',(#220));
#219=SURFACE_STYLE_FILL_AREA(#221);
#220=SURFACE_STYLE_FILL_AREA(#222);
#221=FILL_AREA_STYLE('',(#223));
#222=FILL_AREA_STYLE('',(#224));
#223=FILL_AREA_STYLE_COLOUR('',#225);
#224=FILL_AREA_STYLE_COLOUR('',#226);
#225=COLOUR_RGB('',0.92156862745098,0.92156862745098,0.92156862745098);
#226=COLOUR_RGB('',0.16078431372549,0.16078431372549,0.16078431372549);
ENDSEC;
END-ISO-10303-21;
