ISO-10303-21;
HEADER;
/* Generated by software containing ST-Developer
 * from STEP Tools, Inc. (www.steptools.com) 
 */

FILE_DESCRIPTION(
/* description */ (''),
/* implementation_level */ '2;1');

FILE_NAME(
/* name */ 'E_3_01_07_09_00_WKZ-0047.stp',
/* time_stamp */ '2025-11-24T10:30:03+01:00',
/* author */ ('d.fischer'),
/* organization */ (''),
/* preprocessor_version */ 'ST-DEVELOPER v20',
/* originating_system */ 'Autodesk Inventor 2025',
/* authorisation */ '');

FILE_SCHEMA (('AUTOMOTIVE_DESIGN { 1 0 10303 214 3 1 1 }'));
ENDSEC;

DATA;
#10=MECHANICAL_DESIGN_GEOMETRIC_PRESENTATION_REPRESENTATION('',(#13),#491);
#11=SHAPE_REPRESENTATION_RELATIONSHIP('SRR','None',#498,#12);
#12=ADVANCED_BREP_SHAPE_REPRESENTATION('',(#14),#490);
#13=STYLED_ITEM('',(#507),#14);
#14=MANIFOLD_SOLID_BREP('Volumenk\X\F6rper1',#294);
#15=CIRCLE('',#329,19.9);
#16=CIRCLE('',#330,19.9);
#17=CYLINDRICAL_SURFACE('',#328,19.9);
#18=FACE_OUTER_BOUND('',#33,.T.);
#19=FACE_OUTER_BOUND('',#34,.T.);
#20=FACE_OUTER_BOUND('',#35,.T.);
#21=FACE_OUTER_BOUND('',#36,.T.);
#22=FACE_OUTER_BOUND('',#37,.T.);
#23=FACE_OUTER_BOUND('',#38,.T.);
#24=FACE_OUTER_BOUND('',#39,.T.);
#25=FACE_OUTER_BOUND('',#40,.T.);
#26=FACE_OUTER_BOUND('',#41,.T.);
#27=FACE_OUTER_BOUND('',#42,.T.);
#28=FACE_OUTER_BOUND('',#43,.T.);
#29=FACE_OUTER_BOUND('',#44,.T.);
#30=FACE_OUTER_BOUND('',#45,.T.);
#31=FACE_OUTER_BOUND('',#46,.T.);
#32=FACE_OUTER_BOUND('',#47,.T.);
#33=EDGE_LOOP('',(#187,#188,#189,#190));
#34=EDGE_LOOP('',(#191,#192,#193,#194));
#35=EDGE_LOOP('',(#195,#196,#197,#198));
#36=EDGE_LOOP('',(#199,#200,#201,#202));
#37=EDGE_LOOP('',(#203,#204,#205,#206));
#38=EDGE_LOOP('',(#207,#208,#209,#210));
#39=EDGE_LOOP('',(#211,#212,#213,#214));
#40=EDGE_LOOP('',(#215,#216,#217,#218));
#41=EDGE_LOOP('',(#219,#220,#221,#222));
#42=EDGE_LOOP('',(#223,#224,#225,#226));
#43=EDGE_LOOP('',(#227,#228,#229,#230));
#44=EDGE_LOOP('',(#231,#232,#233,#234));
#45=EDGE_LOOP('',(#235,#236,#237,#238));
#46=EDGE_LOOP('',(#239,#240,#241,#242,#243,#244,#245,#246,#247,#248,#249,
#250,#251));
#47=EDGE_LOOP('',(#252,#253,#254,#255,#256,#257,#258,#259,#260,#261,#262,
#263,#264));
#48=LINE('',#411,#85);
#49=LINE('',#413,#86);
#50=LINE('',#415,#87);
#51=LINE('',#416,#88);
#52=LINE('',#419,#89);
#53=LINE('',#421,#90);
#54=LINE('',#422,#91);
#55=LINE('',#425,#92);
#56=LINE('',#427,#93);
#57=LINE('',#428,#94);
#58=LINE('',#431,#95);
#59=LINE('',#433,#96);
#60=LINE('',#434,#97);
#61=LINE('',#437,#98);
#62=LINE('',#439,#99);
#63=LINE('',#440,#100);
#64=LINE('',#443,#101);
#65=LINE('',#445,#102);
#66=LINE('',#446,#103);
#67=LINE('',#449,#104);
#68=LINE('',#451,#105);
#69=LINE('',#452,#106);
#70=LINE('',#455,#107);
#71=LINE('',#457,#108);
#72=LINE('',#458,#109);
#73=LINE('',#461,#110);
#74=LINE('',#463,#111);
#75=LINE('',#464,#112);
#76=LINE('',#467,#113);
#77=LINE('',#469,#114);
#78=LINE('',#470,#115);
#79=LINE('',#473,#116);
#80=LINE('',#475,#117);
#81=LINE('',#476,#118);
#82=LINE('',#482,#119);
#83=LINE('',#484,#120);
#84=LINE('',#485,#121);
#85=VECTOR('',#338,10.);
#86=VECTOR('',#339,10.);
#87=VECTOR('',#340,10.);
#88=VECTOR('',#341,10.);
#89=VECTOR('',#344,10.);
#90=VECTOR('',#345,10.);
#91=VECTOR('',#346,10.);
#92=VECTOR('',#349,10.);
#93=VECTOR('',#350,10.);
#94=VECTOR('',#351,10.);
#95=VECTOR('',#354,10.);
#96=VECTOR('',#355,10.);
#97=VECTOR('',#356,10.);
#98=VECTOR('',#359,10.);
#99=VECTOR('',#360,10.);
#100=VECTOR('',#361,10.);
#101=VECTOR('',#364,10.);
#102=VECTOR('',#365,10.);
#103=VECTOR('',#366,10.);
#104=VECTOR('',#369,10.);
#105=VECTOR('',#370,10.);
#106=VECTOR('',#371,10.);
#107=VECTOR('',#374,10.);
#108=VECTOR('',#375,10.);
#109=VECTOR('',#376,10.);
#110=VECTOR('',#379,10.);
#111=VECTOR('',#380,10.);
#112=VECTOR('',#381,10.);
#113=VECTOR('',#384,10.);
#114=VECTOR('',#385,10.);
#115=VECTOR('',#386,10.);
#116=VECTOR('',#389,10.);
#117=VECTOR('',#390,10.);
#118=VECTOR('',#391,10.);
#119=VECTOR('',#398,10.);
#120=VECTOR('',#401,10.);
#121=VECTOR('',#402,10.);
#122=VERTEX_POINT('',#409);
#123=VERTEX_POINT('',#410);
#124=VERTEX_POINT('',#412);
#125=VERTEX_POINT('',#414);
#126=VERTEX_POINT('',#418);
#127=VERTEX_POINT('',#420);
#128=VERTEX_POINT('',#424);
#129=VERTEX_POINT('',#426);
#130=VERTEX_POINT('',#430);
#131=VERTEX_POINT('',#432);
#132=VERTEX_POINT('',#436);
#133=VERTEX_POINT('',#438);
#134=VERTEX_POINT('',#442);
#135=VERTEX_POINT('',#444);
#136=VERTEX_POINT('',#448);
#137=VERTEX_POINT('',#450);
#138=VERTEX_POINT('',#454);
#139=VERTEX_POINT('',#456);
#140=VERTEX_POINT('',#460);
#141=VERTEX_POINT('',#462);
#142=VERTEX_POINT('',#466);
#143=VERTEX_POINT('',#468);
#144=VERTEX_POINT('',#472);
#145=VERTEX_POINT('',#474);
#146=VERTEX_POINT('',#478);
#147=VERTEX_POINT('',#480);
#148=EDGE_CURVE('',#122,#123,#48,.T.);
#149=EDGE_CURVE('',#122,#124,#49,.T.);
#150=EDGE_CURVE('',#125,#124,#50,.T.);
#151=EDGE_CURVE('',#123,#125,#51,.T.);
#152=EDGE_CURVE('',#123,#126,#52,.T.);
#153=EDGE_CURVE('',#127,#125,#53,.T.);
#154=EDGE_CURVE('',#126,#127,#54,.T.);
#155=EDGE_CURVE('',#126,#128,#55,.T.);
#156=EDGE_CURVE('',#129,#127,#56,.T.);
#157=EDGE_CURVE('',#128,#129,#57,.T.);
#158=EDGE_CURVE('',#128,#130,#58,.T.);
#159=EDGE_CURVE('',#131,#129,#59,.T.);
#160=EDGE_CURVE('',#130,#131,#60,.T.);
#161=EDGE_CURVE('',#130,#132,#61,.T.);
#162=EDGE_CURVE('',#133,#131,#62,.T.);
#163=EDGE_CURVE('',#132,#133,#63,.T.);
#164=EDGE_CURVE('',#132,#134,#64,.T.);
#165=EDGE_CURVE('',#135,#133,#65,.T.);
#166=EDGE_CURVE('',#134,#135,#66,.T.);
#167=EDGE_CURVE('',#134,#136,#67,.T.);
#168=EDGE_CURVE('',#137,#135,#68,.T.);
#169=EDGE_CURVE('',#136,#137,#69,.T.);
#170=EDGE_CURVE('',#136,#138,#70,.T.);
#171=EDGE_CURVE('',#139,#137,#71,.T.);
#172=EDGE_CURVE('',#138,#139,#72,.T.);
#173=EDGE_CURVE('',#138,#140,#73,.T.);
#174=EDGE_CURVE('',#141,#139,#74,.T.);
#175=EDGE_CURVE('',#140,#141,#75,.T.);
#176=EDGE_CURVE('',#140,#142,#76,.T.);
#177=EDGE_CURVE('',#143,#141,#77,.T.);
#178=EDGE_CURVE('',#142,#143,#78,.T.);
#179=EDGE_CURVE('',#142,#144,#79,.T.);
#180=EDGE_CURVE('',#145,#143,#80,.T.);
#181=EDGE_CURVE('',#144,#145,#81,.T.);
#182=EDGE_CURVE('',#144,#146,#15,.T.);
#183=EDGE_CURVE('',#147,#145,#16,.T.);
#184=EDGE_CURVE('',#146,#147,#82,.T.);
#185=EDGE_CURVE('',#146,#122,#83,.T.);
#186=EDGE_CURVE('',#124,#147,#84,.T.);
#187=ORIENTED_EDGE('',*,*,#148,.F.);
#188=ORIENTED_EDGE('',*,*,#149,.T.);
#189=ORIENTED_EDGE('',*,*,#150,.F.);
#190=ORIENTED_EDGE('',*,*,#151,.F.);
#191=ORIENTED_EDGE('',*,*,#152,.F.);
#192=ORIENTED_EDGE('',*,*,#151,.T.);
#193=ORIENTED_EDGE('',*,*,#153,.F.);
#194=ORIENTED_EDGE('',*,*,#154,.F.);
#195=ORIENTED_EDGE('',*,*,#155,.F.);
#196=ORIENTED_EDGE('',*,*,#154,.T.);
#197=ORIENTED_EDGE('',*,*,#156,.F.);
#198=ORIENTED_EDGE('',*,*,#157,.F.);
#199=ORIENTED_EDGE('',*,*,#158,.F.);
#200=ORIENTED_EDGE('',*,*,#157,.T.);
#201=ORIENTED_EDGE('',*,*,#159,.F.);
#202=ORIENTED_EDGE('',*,*,#160,.F.);
#203=ORIENTED_EDGE('',*,*,#161,.F.);
#204=ORIENTED_EDGE('',*,*,#160,.T.);
#205=ORIENTED_EDGE('',*,*,#162,.F.);
#206=ORIENTED_EDGE('',*,*,#163,.F.);
#207=ORIENTED_EDGE('',*,*,#164,.F.);
#208=ORIENTED_EDGE('',*,*,#163,.T.);
#209=ORIENTED_EDGE('',*,*,#165,.F.);
#210=ORIENTED_EDGE('',*,*,#166,.F.);
#211=ORIENTED_EDGE('',*,*,#167,.F.);
#212=ORIENTED_EDGE('',*,*,#166,.T.);
#213=ORIENTED_EDGE('',*,*,#168,.F.);
#214=ORIENTED_EDGE('',*,*,#169,.F.);
#215=ORIENTED_EDGE('',*,*,#170,.F.);
#216=ORIENTED_EDGE('',*,*,#169,.T.);
#217=ORIENTED_EDGE('',*,*,#171,.F.);
#218=ORIENTED_EDGE('',*,*,#172,.F.);
#219=ORIENTED_EDGE('',*,*,#173,.F.);
#220=ORIENTED_EDGE('',*,*,#172,.T.);
#221=ORIENTED_EDGE('',*,*,#174,.F.);
#222=ORIENTED_EDGE('',*,*,#175,.F.);
#223=ORIENTED_EDGE('',*,*,#176,.F.);
#224=ORIENTED_EDGE('',*,*,#175,.T.);
#225=ORIENTED_EDGE('',*,*,#177,.F.);
#226=ORIENTED_EDGE('',*,*,#178,.F.);
#227=ORIENTED_EDGE('',*,*,#179,.F.);
#228=ORIENTED_EDGE('',*,*,#178,.T.);
#229=ORIENTED_EDGE('',*,*,#180,.F.);
#230=ORIENTED_EDGE('',*,*,#181,.F.);
#231=ORIENTED_EDGE('',*,*,#182,.F.);
#232=ORIENTED_EDGE('',*,*,#181,.T.);
#233=ORIENTED_EDGE('',*,*,#183,.F.);
#234=ORIENTED_EDGE('',*,*,#184,.F.);
#235=ORIENTED_EDGE('',*,*,#185,.F.);
#236=ORIENTED_EDGE('',*,*,#184,.T.);
#237=ORIENTED_EDGE('',*,*,#186,.F.);
#238=ORIENTED_EDGE('',*,*,#149,.F.);
#239=ORIENTED_EDGE('',*,*,#186,.T.);
#240=ORIENTED_EDGE('',*,*,#183,.T.);
#241=ORIENTED_EDGE('',*,*,#180,.T.);
#242=ORIENTED_EDGE('',*,*,#177,.T.);
#243=ORIENTED_EDGE('',*,*,#174,.T.);
#244=ORIENTED_EDGE('',*,*,#171,.T.);
#245=ORIENTED_EDGE('',*,*,#168,.T.);
#246=ORIENTED_EDGE('',*,*,#165,.T.);
#247=ORIENTED_EDGE('',*,*,#162,.T.);
#248=ORIENTED_EDGE('',*,*,#159,.T.);
#249=ORIENTED_EDGE('',*,*,#156,.T.);
#250=ORIENTED_EDGE('',*,*,#153,.T.);
#251=ORIENTED_EDGE('',*,*,#150,.T.);
#252=ORIENTED_EDGE('',*,*,#185,.T.);
#253=ORIENTED_EDGE('',*,*,#148,.T.);
#254=ORIENTED_EDGE('',*,*,#152,.T.);
#255=ORIENTED_EDGE('',*,*,#155,.T.);
#256=ORIENTED_EDGE('',*,*,#158,.T.);
#257=ORIENTED_EDGE('',*,*,#161,.T.);
#258=ORIENTED_EDGE('',*,*,#164,.T.);
#259=ORIENTED_EDGE('',*,*,#167,.T.);
#260=ORIENTED_EDGE('',*,*,#170,.T.);
#261=ORIENTED_EDGE('',*,*,#173,.T.);
#262=ORIENTED_EDGE('',*,*,#176,.T.);
#263=ORIENTED_EDGE('',*,*,#179,.T.);
#264=ORIENTED_EDGE('',*,*,#182,.T.);
#265=PLANE('',#317);
#266=PLANE('',#318);
#267=PLANE('',#319);
#268=PLANE('',#320);
#269=PLANE('',#321);
#270=PLANE('',#322);
#271=PLANE('',#323);
#272=PLANE('',#324);
#273=PLANE('',#325);
#274=PLANE('',#326);
#275=PLANE('',#327);
#276=PLANE('',#331);
#277=PLANE('',#332);
#278=PLANE('',#333);
#279=ADVANCED_FACE('',(#18),#265,.T.);
#280=ADVANCED_FACE('',(#19),#266,.T.);
#281=ADVANCED_FACE('',(#20),#267,.T.);
#282=ADVANCED_FACE('',(#21),#268,.T.);
#283=ADVANCED_FACE('',(#22),#269,.T.);
#284=ADVANCED_FACE('',(#23),#270,.T.);
#285=ADVANCED_FACE('',(#24),#271,.T.);
#286=ADVANCED_FACE('',(#25),#272,.T.);
#287=ADVANCED_FACE('',(#26),#273,.T.);
#288=ADVANCED_FACE('',(#27),#274,.T.);
#289=ADVANCED_FACE('',(#28),#275,.T.);
#290=ADVANCED_FACE('',(#29),#17,.F.);
#291=ADVANCED_FACE('',(#30),#276,.T.);
#292=ADVANCED_FACE('',(#31),#277,.F.);
#293=ADVANCED_FACE('',(#32),#278,.T.);
#294=CLOSED_SHELL('',(#279,#280,#281,#282,#283,#284,#285,#286,#287,#288,
#289,#290,#291,#292,#293));
#295=DERIVED_UNIT_ELEMENT(#298,1.);
#296=DERIVED_UNIT_ELEMENT(#493,-3.);
#297=DIMENSIONAL_EXPONENTS(0.,1.,0.,0.,0.,0.,0.);
#298=(
CONVERSION_BASED_UNIT('gram',#300)
MASS_UNIT()
NAMED_UNIT(#297)
);
#299=(
MASS_UNIT()
NAMED_UNIT(*)
SI_UNIT(.KILO.,.GRAM.)
);
#300=MASS_MEASURE_WITH_UNIT(MASS_MEASURE(0.001),#299);
#301=DERIVED_UNIT((#295,#296));
#302=MEASURE_REPRESENTATION_ITEM('density measure',
POSITIVE_RATIO_MEASURE(1.),#301);
#303=PROPERTY_DEFINITION_REPRESENTATION(#308,#305);
#304=PROPERTY_DEFINITION_REPRESENTATION(#309,#306);
#305=REPRESENTATION('material name',(#307),#490);
#306=REPRESENTATION('density',(#302),#490);
#307=DESCRIPTIVE_REPRESENTATION_ITEM('Allgemein','Allgemein');
#308=PROPERTY_DEFINITION('material property','material name',#500);
#309=PROPERTY_DEFINITION('material property','density of part',#500);
#310=DATE_TIME_ROLE('creation_date');
#311=APPLIED_DATE_AND_TIME_ASSIGNMENT(#312,#310,(#500));
#312=DATE_AND_TIME(#313,#314);
#313=CALENDAR_DATE(2013,1,10);
#314=LOCAL_TIME(0,0,0.,#315);
#315=COORDINATED_UNIVERSAL_TIME_OFFSET(0,0,.BEHIND.);
#316=AXIS2_PLACEMENT_3D('',#407,#334,#335);
#317=AXIS2_PLACEMENT_3D('',#408,#336,#337);
#318=AXIS2_PLACEMENT_3D('',#417,#342,#343);
#319=AXIS2_PLACEMENT_3D('',#423,#347,#348);
#320=AXIS2_PLACEMENT_3D('',#429,#352,#353);
#321=AXIS2_PLACEMENT_3D('',#435,#357,#358);
#322=AXIS2_PLACEMENT_3D('',#441,#362,#363);
#323=AXIS2_PLACEMENT_3D('',#447,#367,#368);
#324=AXIS2_PLACEMENT_3D('',#453,#372,#373);
#325=AXIS2_PLACEMENT_3D('',#459,#377,#378);
#326=AXIS2_PLACEMENT_3D('',#465,#382,#383);
#327=AXIS2_PLACEMENT_3D('',#471,#387,#388);
#328=AXIS2_PLACEMENT_3D('',#477,#392,#393);
#329=AXIS2_PLACEMENT_3D('',#479,#394,#395);
#330=AXIS2_PLACEMENT_3D('',#481,#396,#397);
#331=AXIS2_PLACEMENT_3D('',#483,#399,#400);
#332=AXIS2_PLACEMENT_3D('',#486,#403,#404);
#333=AXIS2_PLACEMENT_3D('',#487,#405,#406);
#334=DIRECTION('axis',(0.,0.,1.));
#335=DIRECTION('refdir',(1.,0.,0.));
#336=DIRECTION('center_axis',(-1.,-2.22044604925031E-16,0.));
#337=DIRECTION('ref_axis',(-2.22044604925031E-16,1.,0.));
#338=DIRECTION('',(2.22044604925031E-16,-1.,0.));
#339=DIRECTION('',(0.,0.,-1.));
#340=DIRECTION('',(-2.22044604925031E-16,1.,0.));
#341=DIRECTION('',(0.,0.,-1.));
#342=DIRECTION('center_axis',(2.22044604925031E-16,-1.,0.));
#343=DIRECTION('ref_axis',(-1.,-2.22044604925031E-16,0.));
#344=DIRECTION('',(1.,2.22044604925031E-16,0.));
#345=DIRECTION('',(-1.,-2.22044604925031E-16,0.));
#346=DIRECTION('',(0.,0.,-1.));
#347=DIRECTION('center_axis',(1.,0.,0.));
#348=DIRECTION('ref_axis',(0.,-1.,0.));
#349=DIRECTION('',(0.,1.,0.));
#350=DIRECTION('',(0.,-1.,0.));
#351=DIRECTION('',(0.,0.,-1.));
#352=DIRECTION('center_axis',(2.46716227694479E-16,-1.,0.));
#353=DIRECTION('ref_axis',(-1.,-2.46716227694479E-16,0.));
#354=DIRECTION('',(1.,2.46716227694479E-16,0.));
#355=DIRECTION('',(-1.,-2.46716227694479E-16,0.));
#356=DIRECTION('',(0.,0.,-1.));
#357=DIRECTION('center_axis',(-1.,-2.22044604925031E-15,0.));
#358=DIRECTION('ref_axis',(-2.22044604925031E-15,1.,0.));
#359=DIRECTION('',(2.22044604925031E-15,-1.,0.));
#360=DIRECTION('',(-2.22044604925031E-15,1.,0.));
#361=DIRECTION('',(0.,0.,-1.));
#362=DIRECTION('center_axis',(2.37904933848248E-16,-1.,0.));
#363=DIRECTION('ref_axis',(-1.,-2.37904933848248E-16,0.));
#364=DIRECTION('',(1.,2.37904933848248E-16,0.));
#365=DIRECTION('',(-1.,-2.37904933848248E-16,0.));
#366=DIRECTION('',(0.,0.,-1.));
#367=DIRECTION('center_axis',(1.,0.,0.));
#368=DIRECTION('ref_axis',(0.,-1.,0.));
#369=DIRECTION('',(0.,1.,0.));
#370=DIRECTION('',(0.,-1.,0.));
#371=DIRECTION('',(0.,0.,-1.));
#372=DIRECTION('center_axis',(2.42861286636753E-16,-1.,0.));
#373=DIRECTION('ref_axis',(-1.,-2.42861286636753E-16,0.));
#374=DIRECTION('',(1.,2.42861286636753E-16,0.));
#375=DIRECTION('',(-1.,-2.42861286636753E-16,0.));
#376=DIRECTION('',(0.,0.,-1.));
#377=DIRECTION('center_axis',(-1.,0.,0.));
#378=DIRECTION('ref_axis',(0.,1.,0.));
#379=DIRECTION('',(0.,-1.,0.));
#380=DIRECTION('',(0.,1.,0.));
#381=DIRECTION('',(0.,0.,-1.));
#382=DIRECTION('center_axis',(3.70074341541719E-16,-1.,0.));
#383=DIRECTION('ref_axis',(-1.,-3.70074341541719E-16,0.));
#384=DIRECTION('',(1.,3.70074341541719E-16,0.));
#385=DIRECTION('',(-1.,-3.70074341541719E-16,0.));
#386=DIRECTION('',(0.,0.,-1.));
#387=DIRECTION('center_axis',(1.,0.,0.));
#388=DIRECTION('ref_axis',(0.,-1.,0.));
#389=DIRECTION('',(0.,1.,0.));
#390=DIRECTION('',(0.,-1.,0.));
#391=DIRECTION('',(0.,0.,-1.));
#392=DIRECTION('center_axis',(0.,0.,-1.));
#393=DIRECTION('ref_axis',(0.995510869020445,0.0946472908336971,0.));
#394=DIRECTION('center_axis',(0.,0.,-1.));
#395=DIRECTION('ref_axis',(0.995510869020445,0.0946472908336971,0.));
#396=DIRECTION('center_axis',(0.,0.,1.));
#397=DIRECTION('ref_axis',(0.995510869020445,0.0946472908336971,0.));
#398=DIRECTION('',(0.,0.,-1.));
#399=DIRECTION('center_axis',(0.,1.,0.));
#400=DIRECTION('ref_axis',(1.,0.,0.));
#401=DIRECTION('',(-1.,0.,0.));
#402=DIRECTION('',(1.,0.,0.));
#403=DIRECTION('center_axis',(0.,0.,1.));
#404=DIRECTION('ref_axis',(1.,0.,0.));
#405=DIRECTION('center_axis',(0.,0.,1.));
#406=DIRECTION('ref_axis',(1.,0.,0.));
#407=CARTESIAN_POINT('',(0.,0.,0.));
#408=CARTESIAN_POINT('Origin',(-21.,-2.22044604925031E-15,0.));
#409=CARTESIAN_POINT('',(-21.,20.,0.));
#410=CARTESIAN_POINT('',(-21.,-2.77555756156289E-15,0.));
#411=CARTESIAN_POINT('',(-21.,20.,0.));
#412=CARTESIAN_POINT('',(-21.,20.,-16.));
#413=CARTESIAN_POINT('',(-21.,20.,0.));
#414=CARTESIAN_POINT('',(-21.,-2.22044604925031E-15,-16.));
#415=CARTESIAN_POINT('',(-21.,20.,-16.));
#416=CARTESIAN_POINT('',(-21.,-2.77555756156289E-15,0.));
#417=CARTESIAN_POINT('Origin',(-18.5,-2.22044604925031E-15,0.));
#418=CARTESIAN_POINT('',(-18.5,-2.22044604925031E-15,0.));
#419=CARTESIAN_POINT('',(-21.,-2.77555756156289E-15,0.));
#420=CARTESIAN_POINT('',(-18.5,-2.22044604925031E-15,-16.));
#421=CARTESIAN_POINT('',(-21.,-2.77555756156289E-15,-16.));
#422=CARTESIAN_POINT('',(-18.5,-2.22044604925031E-15,0.));
#423=CARTESIAN_POINT('Origin',(-18.5,0.999999999999998,0.));
#424=CARTESIAN_POINT('',(-18.5,0.999999999999998,0.));
#425=CARTESIAN_POINT('',(-18.5,-2.22044604925031E-15,0.));
#426=CARTESIAN_POINT('',(-18.5,0.999999999999999,-16.));
#427=CARTESIAN_POINT('',(-18.5,-2.22044604925031E-15,-16.));
#428=CARTESIAN_POINT('',(-18.5,0.999999999999998,0.));
#429=CARTESIAN_POINT('Origin',(-14.,0.999999999999999,0.));
#430=CARTESIAN_POINT('',(-14.,0.999999999999999,0.));
#431=CARTESIAN_POINT('',(-18.5,0.999999999999998,0.));
#432=CARTESIAN_POINT('',(-14.,0.999999999999999,-16.));
#433=CARTESIAN_POINT('',(-18.5,0.999999999999998,-16.));
#434=CARTESIAN_POINT('',(-14.,0.999999999999999,0.));
#435=CARTESIAN_POINT('Origin',(-14.,-4.44089209850063E-15,0.));
#436=CARTESIAN_POINT('',(-14.,-4.44089209850063E-15,0.));
#437=CARTESIAN_POINT('',(-14.,0.999999999999999,0.));
#438=CARTESIAN_POINT('',(-14.,-4.44089209850063E-15,-16.));
#439=CARTESIAN_POINT('',(-14.,0.999999999999999,-16.));
#440=CARTESIAN_POINT('',(-14.,-4.44089209850063E-15,0.));
#441=CARTESIAN_POINT('Origin',(-7.,-2.77555756156289E-15,0.));
#442=CARTESIAN_POINT('',(-7.,-2.77555756156289E-15,0.));
#443=CARTESIAN_POINT('',(-14.,-4.44089209850063E-15,0.));
#444=CARTESIAN_POINT('',(-7.,-2.22044604925031E-15,-16.));
#445=CARTESIAN_POINT('',(-14.,-4.44089209850063E-15,-16.));
#446=CARTESIAN_POINT('',(-7.,-2.77555756156289E-15,0.));
#447=CARTESIAN_POINT('Origin',(-7.,0.999999999999997,0.));
#448=CARTESIAN_POINT('',(-7.,0.999999999999997,0.));
#449=CARTESIAN_POINT('',(-7.,-2.77555756156289E-15,0.));
#450=CARTESIAN_POINT('',(-7.,0.999999999999996,-16.));
#451=CARTESIAN_POINT('',(-7.,-2.77555756156289E-15,-16.));
#452=CARTESIAN_POINT('',(-7.,0.999999999999997,0.));
#453=CARTESIAN_POINT('Origin',(-3.,0.999999999999998,0.));
#454=CARTESIAN_POINT('',(-3.,0.999999999999998,0.));
#455=CARTESIAN_POINT('',(-7.,0.999999999999997,0.));
#456=CARTESIAN_POINT('',(-3.,0.999999999999999,-16.));
#457=CARTESIAN_POINT('',(-7.,0.999999999999997,-16.));
#458=CARTESIAN_POINT('',(-3.,0.999999999999998,0.));
#459=CARTESIAN_POINT('Origin',(-3.,-1.11022302462516E-15,0.));
#460=CARTESIAN_POINT('',(-3.,-1.11022302462516E-15,0.));
#461=CARTESIAN_POINT('',(-3.,0.999999999999998,0.));
#462=CARTESIAN_POINT('',(-3.,0.,-16.));
#463=CARTESIAN_POINT('',(-3.,0.999999999999998,-16.));
#464=CARTESIAN_POINT('',(-3.,-1.11022302462516E-15,0.));
#465=CARTESIAN_POINT('Origin',(0.,0.,0.));
#466=CARTESIAN_POINT('',(0.,0.,0.));
#467=CARTESIAN_POINT('',(-3.,-1.11022302462516E-15,0.));
#468=CARTESIAN_POINT('',(0.,0.,-16.));
#469=CARTESIAN_POINT('',(-3.,-1.11022302462516E-15,-16.));
#470=CARTESIAN_POINT('',(0.,0.,0.));
#471=CARTESIAN_POINT('Origin',(0.,2.,0.));
#472=CARTESIAN_POINT('',(0.,2.,0.));
#473=CARTESIAN_POINT('',(0.,0.,0.));
#474=CARTESIAN_POINT('',(0.,2.,-16.));
#475=CARTESIAN_POINT('',(0.,0.,-16.));
#476=CARTESIAN_POINT('',(0.,2.,0.));
#477=CARTESIAN_POINT('Origin',(0.81066629350685,21.8834810875906,0.));
#478=CARTESIAN_POINT('',(-19.,20.,0.));
#479=CARTESIAN_POINT('Origin',(0.81066629350685,21.8834810875906,0.));
#480=CARTESIAN_POINT('',(-19.,20.,-16.));
#481=CARTESIAN_POINT('Origin',(0.81066629350685,21.8834810875906,-16.));
#482=CARTESIAN_POINT('',(-19.,20.,0.));
#483=CARTESIAN_POINT('Origin',(-21.,20.,0.));
#484=CARTESIAN_POINT('',(-19.,20.,0.));
#485=CARTESIAN_POINT('',(-19.,20.,-16.));
#486=CARTESIAN_POINT('Origin',(-13.8350963115907,6.2154000518563,-16.));
#487=CARTESIAN_POINT('Origin',(-13.8350963115907,6.2154000518563,0.));
#488=UNCERTAINTY_MEASURE_WITH_UNIT(LENGTH_MEASURE(0.01),#492,
'DISTANCE_ACCURACY_VALUE',
'Maximum model space distance between geometric entities at asserted c
onnectivities');
#489=UNCERTAINTY_MEASURE_WITH_UNIT(LENGTH_MEASURE(0.01),#492,
'DISTANCE_ACCURACY_VALUE',
'Maximum model space distance between geometric entities at asserted c
onnectivities');
#490=(
GEOMETRIC_REPRESENTATION_CONTEXT(3)
GLOBAL_UNCERTAINTY_ASSIGNED_CONTEXT((#488))
GLOBAL_UNIT_ASSIGNED_CONTEXT((#492,#494,#495))
REPRESENTATION_CONTEXT('','3D')
);
#491=(
GEOMETRIC_REPRESENTATION_CONTEXT(3)
GLOBAL_UNCERTAINTY_ASSIGNED_CONTEXT((#489))
GLOBAL_UNIT_ASSIGNED_CONTEXT((#492,#494,#495))
REPRESENTATION_CONTEXT('','3D')
);
#492=(
LENGTH_UNIT()
NAMED_UNIT(*)
SI_UNIT(.MILLI.,.METRE.)
);
#493=(
LENGTH_UNIT()
NAMED_UNIT(*)
SI_UNIT(.CENTI.,.METRE.)
);
#494=(
NAMED_UNIT(*)
PLANE_ANGLE_UNIT()
SI_UNIT($,.RADIAN.)
);
#495=(
NAMED_UNIT(*)
SI_UNIT($,.STERADIAN.)
SOLID_ANGLE_UNIT()
);
#496=SHAPE_DEFINITION_REPRESENTATION(#497,#498);
#497=PRODUCT_DEFINITION_SHAPE('',$,#500);
#498=SHAPE_REPRESENTATION('',(#316),#490);
#499=PRODUCT_DEFINITION_CONTEXT('part definition',#504,'design');
#500=PRODUCT_DEFINITION('WKZ-0047','E_3_01_07_09_00_WKZ-0047',#501,#499);
#501=PRODUCT_DEFINITION_FORMATION('',$,#506);
#502=PRODUCT_RELATED_PRODUCT_CATEGORY('E_3_01_07_09_00_WKZ-0047',
'E_3_01_07_09_00_WKZ-0047',(#506));
#503=APPLICATION_PROTOCOL_DEFINITION('international standard',
'automotive_design',2009,#504);
#504=APPLICATION_CONTEXT(
'Core Data for Automotive Mechanical Design Process');
#505=PRODUCT_CONTEXT('part definition',#504,'mechanical');
#506=PRODUCT('WKZ-0047','E_3_01_07_09_00_WKZ-0047',$,(#505));
#507=PRESENTATION_STYLE_ASSIGNMENT((#508));
#508=SURFACE_STYLE_USAGE(.BOTH.,#511);
#509=SURFACE_STYLE_RENDERING_WITH_PROPERTIES($,#515,(#510));
#510=SURFACE_STYLE_TRANSPARENT(0.);
#511=SURFACE_SIDE_STYLE('',(#512,#509));
#512=SURFACE_STYLE_FILL_AREA(#513);
#513=FILL_AREA_STYLE('',(#514));
#514=FILL_AREA_STYLE_COLOUR('',#515);
#515=COLOUR_RGB('',0.749019607843137,0.749019607843137,0.749019607843137);
ENDSEC;
END-ISO-10303-21;
