ISO-10303-21;
HEADER;
/* Generated by software containing ST-Developer
 * from STEP Tools, Inc. (www.steptools.com) 
 */

FILE_DESCRIPTION(
/* description */ (''),
/* implementation_level */ '2;1');

FILE_NAME(
/* name */ 'E_3_01_06_08_00_WKZ-0083.stp',
/* time_stamp */ '2025-11-24T11:21:49+01:00',
/* author */ ('d.fischer'),
/* organization */ (''),
/* preprocessor_version */ 'ST-DEVELOPER v20',
/* originating_system */ 'Autodesk Inventor 2025',
/* authorisation */ '');

FILE_SCHEMA (('AUTOMOTIVE_DESIGN { 1 0 10303 214 3 1 1 }'));
ENDSEC;

DATA;
#10=MECHANICAL_DESIGN_GEOMETRIC_PRESENTATION_REPRESENTATION('',(#13),#588);
#11=SHAPE_REPRESENTATION_RELATIONSHIP('SRR','None',#595,#12);
#12=ADVANCED_BREP_SHAPE_REPRESENTATION('',(#14),#587);
#13=STYLED_ITEM('',(#604),#14);
#14=MANIFOLD_SOLID_BREP('Volumenk\X\F6rper1',#359);
#15=FACE_OUTER_BOUND('',#33,.T.);
#16=FACE_OUTER_BOUND('',#34,.T.);
#17=FACE_OUTER_BOUND('',#35,.T.);
#18=FACE_OUTER_BOUND('',#36,.T.);
#19=FACE_OUTER_BOUND('',#37,.T.);
#20=FACE_OUTER_BOUND('',#38,.T.);
#21=FACE_OUTER_BOUND('',#39,.T.);
#22=FACE_OUTER_BOUND('',#40,.T.);
#23=FACE_OUTER_BOUND('',#41,.T.);
#24=FACE_OUTER_BOUND('',#42,.T.);
#25=FACE_OUTER_BOUND('',#43,.T.);
#26=FACE_OUTER_BOUND('',#44,.T.);
#27=FACE_OUTER_BOUND('',#45,.T.);
#28=FACE_OUTER_BOUND('',#46,.T.);
#29=FACE_OUTER_BOUND('',#47,.T.);
#30=FACE_OUTER_BOUND('',#48,.T.);
#31=FACE_OUTER_BOUND('',#49,.T.);
#32=FACE_OUTER_BOUND('',#50,.T.);
#33=EDGE_LOOP('',(#227,#228,#229,#230));
#34=EDGE_LOOP('',(#231,#232,#233,#234));
#35=EDGE_LOOP('',(#235,#236,#237,#238));
#36=EDGE_LOOP('',(#239,#240,#241,#242));
#37=EDGE_LOOP('',(#243,#244,#245,#246));
#38=EDGE_LOOP('',(#247,#248,#249,#250));
#39=EDGE_LOOP('',(#251,#252,#253,#254));
#40=EDGE_LOOP('',(#255,#256,#257,#258));
#41=EDGE_LOOP('',(#259,#260,#261,#262));
#42=EDGE_LOOP('',(#263,#264,#265,#266));
#43=EDGE_LOOP('',(#267,#268,#269,#270));
#44=EDGE_LOOP('',(#271,#272,#273,#274));
#45=EDGE_LOOP('',(#275,#276,#277,#278));
#46=EDGE_LOOP('',(#279,#280,#281,#282));
#47=EDGE_LOOP('',(#283,#284,#285,#286));
#48=EDGE_LOOP('',(#287,#288,#289,#290));
#49=EDGE_LOOP('',(#291,#292,#293,#294,#295,#296,#297,#298,#299,#300,#301,
#302,#303,#304,#305,#306));
#50=EDGE_LOOP('',(#307,#308,#309,#310,#311,#312,#313,#314,#315,#316,#317,
#318,#319,#320,#321,#322));
#51=LINE('',#490,#99);
#52=LINE('',#492,#100);
#53=LINE('',#494,#101);
#54=LINE('',#495,#102);
#55=LINE('',#498,#103);
#56=LINE('',#500,#104);
#57=LINE('',#501,#105);
#58=LINE('',#504,#106);
#59=LINE('',#506,#107);
#60=LINE('',#507,#108);
#61=LINE('',#510,#109);
#62=LINE('',#512,#110);
#63=LINE('',#513,#111);
#64=LINE('',#516,#112);
#65=LINE('',#518,#113);
#66=LINE('',#519,#114);
#67=LINE('',#522,#115);
#68=LINE('',#524,#116);
#69=LINE('',#525,#117);
#70=LINE('',#528,#118);
#71=LINE('',#530,#119);
#72=LINE('',#531,#120);
#73=LINE('',#534,#121);
#74=LINE('',#536,#122);
#75=LINE('',#537,#123);
#76=LINE('',#540,#124);
#77=LINE('',#542,#125);
#78=LINE('',#543,#126);
#79=LINE('',#546,#127);
#80=LINE('',#548,#128);
#81=LINE('',#549,#129);
#82=LINE('',#552,#130);
#83=LINE('',#554,#131);
#84=LINE('',#555,#132);
#85=LINE('',#558,#133);
#86=LINE('',#560,#134);
#87=LINE('',#561,#135);
#88=LINE('',#564,#136);
#89=LINE('',#566,#137);
#90=LINE('',#567,#138);
#91=LINE('',#570,#139);
#92=LINE('',#572,#140);
#93=LINE('',#573,#141);
#94=LINE('',#576,#142);
#95=LINE('',#578,#143);
#96=LINE('',#579,#144);
#97=LINE('',#581,#145);
#98=LINE('',#582,#146);
#99=VECTOR('',#404,10.);
#100=VECTOR('',#405,10.);
#101=VECTOR('',#406,10.);
#102=VECTOR('',#407,10.);
#103=VECTOR('',#410,10.);
#104=VECTOR('',#411,10.);
#105=VECTOR('',#412,10.);
#106=VECTOR('',#415,10.);
#107=VECTOR('',#416,10.);
#108=VECTOR('',#417,10.);
#109=VECTOR('',#420,10.);
#110=VECTOR('',#421,10.);
#111=VECTOR('',#422,10.);
#112=VECTOR('',#425,10.);
#113=VECTOR('',#426,10.);
#114=VECTOR('',#427,10.);
#115=VECTOR('',#430,10.);
#116=VECTOR('',#431,10.);
#117=VECTOR('',#432,10.);
#118=VECTOR('',#435,10.);
#119=VECTOR('',#436,10.);
#120=VECTOR('',#437,10.);
#121=VECTOR('',#440,10.);
#122=VECTOR('',#441,10.);
#123=VECTOR('',#442,10.);
#124=VECTOR('',#445,10.);
#125=VECTOR('',#446,10.);
#126=VECTOR('',#447,10.);
#127=VECTOR('',#450,10.);
#128=VECTOR('',#451,10.);
#129=VECTOR('',#452,10.);
#130=VECTOR('',#455,10.);
#131=VECTOR('',#456,10.);
#132=VECTOR('',#457,10.);
#133=VECTOR('',#460,10.);
#134=VECTOR('',#461,10.);
#135=VECTOR('',#462,10.);
#136=VECTOR('',#465,10.);
#137=VECTOR('',#466,10.);
#138=VECTOR('',#467,10.);
#139=VECTOR('',#470,10.);
#140=VECTOR('',#471,10.);
#141=VECTOR('',#472,10.);
#142=VECTOR('',#475,10.);
#143=VECTOR('',#476,10.);
#144=VECTOR('',#477,10.);
#145=VECTOR('',#480,10.);
#146=VECTOR('',#481,10.);
#147=VERTEX_POINT('',#488);
#148=VERTEX_POINT('',#489);
#149=VERTEX_POINT('',#491);
#150=VERTEX_POINT('',#493);
#151=VERTEX_POINT('',#497);
#152=VERTEX_POINT('',#499);
#153=VERTEX_POINT('',#503);
#154=VERTEX_POINT('',#505);
#155=VERTEX_POINT('',#509);
#156=VERTEX_POINT('',#511);
#157=VERTEX_POINT('',#515);
#158=VERTEX_POINT('',#517);
#159=VERTEX_POINT('',#521);
#160=VERTEX_POINT('',#523);
#161=VERTEX_POINT('',#527);
#162=VERTEX_POINT('',#529);
#163=VERTEX_POINT('',#533);
#164=VERTEX_POINT('',#535);
#165=VERTEX_POINT('',#539);
#166=VERTEX_POINT('',#541);
#167=VERTEX_POINT('',#545);
#168=VERTEX_POINT('',#547);
#169=VERTEX_POINT('',#551);
#170=VERTEX_POINT('',#553);
#171=VERTEX_POINT('',#557);
#172=VERTEX_POINT('',#559);
#173=VERTEX_POINT('',#563);
#174=VERTEX_POINT('',#565);
#175=VERTEX_POINT('',#569);
#176=VERTEX_POINT('',#571);
#177=VERTEX_POINT('',#575);
#178=VERTEX_POINT('',#577);
#179=EDGE_CURVE('',#147,#148,#51,.T.);
#180=EDGE_CURVE('',#149,#148,#52,.T.);
#181=EDGE_CURVE('',#149,#150,#53,.T.);
#182=EDGE_CURVE('',#150,#147,#54,.T.);
#183=EDGE_CURVE('',#148,#151,#55,.T.);
#184=EDGE_CURVE('',#152,#151,#56,.T.);
#185=EDGE_CURVE('',#152,#149,#57,.T.);
#186=EDGE_CURVE('',#151,#153,#58,.T.);
#187=EDGE_CURVE('',#154,#153,#59,.T.);
#188=EDGE_CURVE('',#154,#152,#60,.T.);
#189=EDGE_CURVE('',#153,#155,#61,.T.);
#190=EDGE_CURVE('',#156,#155,#62,.T.);
#191=EDGE_CURVE('',#156,#154,#63,.T.);
#192=EDGE_CURVE('',#155,#157,#64,.T.);
#193=EDGE_CURVE('',#158,#157,#65,.T.);
#194=EDGE_CURVE('',#158,#156,#66,.T.);
#195=EDGE_CURVE('',#157,#159,#67,.T.);
#196=EDGE_CURVE('',#160,#159,#68,.T.);
#197=EDGE_CURVE('',#160,#158,#69,.T.);
#198=EDGE_CURVE('',#159,#161,#70,.T.);
#199=EDGE_CURVE('',#162,#161,#71,.T.);
#200=EDGE_CURVE('',#162,#160,#72,.T.);
#201=EDGE_CURVE('',#161,#163,#73,.T.);
#202=EDGE_CURVE('',#164,#163,#74,.T.);
#203=EDGE_CURVE('',#164,#162,#75,.T.);
#204=EDGE_CURVE('',#163,#165,#76,.T.);
#205=EDGE_CURVE('',#166,#165,#77,.T.);
#206=EDGE_CURVE('',#166,#164,#78,.T.);
#207=EDGE_CURVE('',#165,#167,#79,.T.);
#208=EDGE_CURVE('',#168,#167,#80,.T.);
#209=EDGE_CURVE('',#168,#166,#81,.T.);
#210=EDGE_CURVE('',#167,#169,#82,.T.);
#211=EDGE_CURVE('',#170,#169,#83,.T.);
#212=EDGE_CURVE('',#170,#168,#84,.T.);
#213=EDGE_CURVE('',#169,#171,#85,.T.);
#214=EDGE_CURVE('',#172,#171,#86,.T.);
#215=EDGE_CURVE('',#172,#170,#87,.T.);
#216=EDGE_CURVE('',#171,#173,#88,.T.);
#217=EDGE_CURVE('',#174,#173,#89,.T.);
#218=EDGE_CURVE('',#174,#172,#90,.T.);
#219=EDGE_CURVE('',#173,#175,#91,.T.);
#220=EDGE_CURVE('',#176,#175,#92,.T.);
#221=EDGE_CURVE('',#176,#174,#93,.T.);
#222=EDGE_CURVE('',#175,#177,#94,.T.);
#223=EDGE_CURVE('',#178,#177,#95,.T.);
#224=EDGE_CURVE('',#178,#176,#96,.T.);
#225=EDGE_CURVE('',#177,#147,#97,.T.);
#226=EDGE_CURVE('',#150,#178,#98,.T.);
#227=ORIENTED_EDGE('',*,*,#179,.T.);
#228=ORIENTED_EDGE('',*,*,#180,.F.);
#229=ORIENTED_EDGE('',*,*,#181,.T.);
#230=ORIENTED_EDGE('',*,*,#182,.T.);
#231=ORIENTED_EDGE('',*,*,#183,.T.);
#232=ORIENTED_EDGE('',*,*,#184,.F.);
#233=ORIENTED_EDGE('',*,*,#185,.T.);
#234=ORIENTED_EDGE('',*,*,#180,.T.);
#235=ORIENTED_EDGE('',*,*,#186,.T.);
#236=ORIENTED_EDGE('',*,*,#187,.F.);
#237=ORIENTED_EDGE('',*,*,#188,.T.);
#238=ORIENTED_EDGE('',*,*,#184,.T.);
#239=ORIENTED_EDGE('',*,*,#189,.T.);
#240=ORIENTED_EDGE('',*,*,#190,.F.);
#241=ORIENTED_EDGE('',*,*,#191,.T.);
#242=ORIENTED_EDGE('',*,*,#187,.T.);
#243=ORIENTED_EDGE('',*,*,#192,.T.);
#244=ORIENTED_EDGE('',*,*,#193,.F.);
#245=ORIENTED_EDGE('',*,*,#194,.T.);
#246=ORIENTED_EDGE('',*,*,#190,.T.);
#247=ORIENTED_EDGE('',*,*,#195,.T.);
#248=ORIENTED_EDGE('',*,*,#196,.F.);
#249=ORIENTED_EDGE('',*,*,#197,.T.);
#250=ORIENTED_EDGE('',*,*,#193,.T.);
#251=ORIENTED_EDGE('',*,*,#198,.T.);
#252=ORIENTED_EDGE('',*,*,#199,.F.);
#253=ORIENTED_EDGE('',*,*,#200,.T.);
#254=ORIENTED_EDGE('',*,*,#196,.T.);
#255=ORIENTED_EDGE('',*,*,#201,.T.);
#256=ORIENTED_EDGE('',*,*,#202,.F.);
#257=ORIENTED_EDGE('',*,*,#203,.T.);
#258=ORIENTED_EDGE('',*,*,#199,.T.);
#259=ORIENTED_EDGE('',*,*,#204,.T.);
#260=ORIENTED_EDGE('',*,*,#205,.F.);
#261=ORIENTED_EDGE('',*,*,#206,.T.);
#262=ORIENTED_EDGE('',*,*,#202,.T.);
#263=ORIENTED_EDGE('',*,*,#207,.T.);
#264=ORIENTED_EDGE('',*,*,#208,.F.);
#265=ORIENTED_EDGE('',*,*,#209,.T.);
#266=ORIENTED_EDGE('',*,*,#205,.T.);
#267=ORIENTED_EDGE('',*,*,#210,.T.);
#268=ORIENTED_EDGE('',*,*,#211,.F.);
#269=ORIENTED_EDGE('',*,*,#212,.T.);
#270=ORIENTED_EDGE('',*,*,#208,.T.);
#271=ORIENTED_EDGE('',*,*,#213,.T.);
#272=ORIENTED_EDGE('',*,*,#214,.F.);
#273=ORIENTED_EDGE('',*,*,#215,.T.);
#274=ORIENTED_EDGE('',*,*,#211,.T.);
#275=ORIENTED_EDGE('',*,*,#216,.T.);
#276=ORIENTED_EDGE('',*,*,#217,.F.);
#277=ORIENTED_EDGE('',*,*,#218,.T.);
#278=ORIENTED_EDGE('',*,*,#214,.T.);
#279=ORIENTED_EDGE('',*,*,#219,.T.);
#280=ORIENTED_EDGE('',*,*,#220,.F.);
#281=ORIENTED_EDGE('',*,*,#221,.T.);
#282=ORIENTED_EDGE('',*,*,#217,.T.);
#283=ORIENTED_EDGE('',*,*,#222,.T.);
#284=ORIENTED_EDGE('',*,*,#223,.F.);
#285=ORIENTED_EDGE('',*,*,#224,.T.);
#286=ORIENTED_EDGE('',*,*,#220,.T.);
#287=ORIENTED_EDGE('',*,*,#225,.T.);
#288=ORIENTED_EDGE('',*,*,#182,.F.);
#289=ORIENTED_EDGE('',*,*,#226,.T.);
#290=ORIENTED_EDGE('',*,*,#223,.T.);
#291=ORIENTED_EDGE('',*,*,#226,.F.);
#292=ORIENTED_EDGE('',*,*,#181,.F.);
#293=ORIENTED_EDGE('',*,*,#185,.F.);
#294=ORIENTED_EDGE('',*,*,#188,.F.);
#295=ORIENTED_EDGE('',*,*,#191,.F.);
#296=ORIENTED_EDGE('',*,*,#194,.F.);
#297=ORIENTED_EDGE('',*,*,#197,.F.);
#298=ORIENTED_EDGE('',*,*,#200,.F.);
#299=ORIENTED_EDGE('',*,*,#203,.F.);
#300=ORIENTED_EDGE('',*,*,#206,.F.);
#301=ORIENTED_EDGE('',*,*,#209,.F.);
#302=ORIENTED_EDGE('',*,*,#212,.F.);
#303=ORIENTED_EDGE('',*,*,#215,.F.);
#304=ORIENTED_EDGE('',*,*,#218,.F.);
#305=ORIENTED_EDGE('',*,*,#221,.F.);
#306=ORIENTED_EDGE('',*,*,#224,.F.);
#307=ORIENTED_EDGE('',*,*,#179,.F.);
#308=ORIENTED_EDGE('',*,*,#225,.F.);
#309=ORIENTED_EDGE('',*,*,#222,.F.);
#310=ORIENTED_EDGE('',*,*,#219,.F.);
#311=ORIENTED_EDGE('',*,*,#216,.F.);
#312=ORIENTED_EDGE('',*,*,#213,.F.);
#313=ORIENTED_EDGE('',*,*,#210,.F.);
#314=ORIENTED_EDGE('',*,*,#207,.F.);
#315=ORIENTED_EDGE('',*,*,#204,.F.);
#316=ORIENTED_EDGE('',*,*,#201,.F.);
#317=ORIENTED_EDGE('',*,*,#198,.F.);
#318=ORIENTED_EDGE('',*,*,#195,.F.);
#319=ORIENTED_EDGE('',*,*,#192,.F.);
#320=ORIENTED_EDGE('',*,*,#189,.F.);
#321=ORIENTED_EDGE('',*,*,#186,.F.);
#322=ORIENTED_EDGE('',*,*,#183,.F.);
#323=PLANE('',#382);
#324=PLANE('',#383);
#325=PLANE('',#384);
#326=PLANE('',#385);
#327=PLANE('',#386);
#328=PLANE('',#387);
#329=PLANE('',#388);
#330=PLANE('',#389);
#331=PLANE('',#390);
#332=PLANE('',#391);
#333=PLANE('',#392);
#334=PLANE('',#393);
#335=PLANE('',#394);
#336=PLANE('',#395);
#337=PLANE('',#396);
#338=PLANE('',#397);
#339=PLANE('',#398);
#340=PLANE('',#399);
#341=ADVANCED_FACE('',(#15),#323,.T.);
#342=ADVANCED_FACE('',(#16),#324,.T.);
#343=ADVANCED_FACE('',(#17),#325,.T.);
#344=ADVANCED_FACE('',(#18),#326,.T.);
#345=ADVANCED_FACE('',(#19),#327,.T.);
#346=ADVANCED_FACE('',(#20),#328,.T.);
#347=ADVANCED_FACE('',(#21),#329,.T.);
#348=ADVANCED_FACE('',(#22),#330,.T.);
#349=ADVANCED_FACE('',(#23),#331,.T.);
#350=ADVANCED_FACE('',(#24),#332,.T.);
#351=ADVANCED_FACE('',(#25),#333,.T.);
#352=ADVANCED_FACE('',(#26),#334,.T.);
#353=ADVANCED_FACE('',(#27),#335,.T.);
#354=ADVANCED_FACE('',(#28),#336,.T.);
#355=ADVANCED_FACE('',(#29),#337,.T.);
#356=ADVANCED_FACE('',(#30),#338,.T.);
#357=ADVANCED_FACE('',(#31),#339,.F.);
#358=ADVANCED_FACE('',(#32),#340,.T.);
#359=CLOSED_SHELL('',(#341,#342,#343,#344,#345,#346,#347,#348,#349,#350,
#351,#352,#353,#354,#355,#356,#357,#358));
#360=DERIVED_UNIT_ELEMENT(#363,1.);
#361=DERIVED_UNIT_ELEMENT(#590,-3.);
#362=DIMENSIONAL_EXPONENTS(0.,1.,0.,0.,0.,0.,0.);
#363=(
CONVERSION_BASED_UNIT('gram',#365)
MASS_UNIT()
NAMED_UNIT(#362)
);
#364=(
MASS_UNIT()
NAMED_UNIT(*)
SI_UNIT(.KILO.,.GRAM.)
);
#365=MASS_MEASURE_WITH_UNIT(MASS_MEASURE(0.001),#364);
#366=DERIVED_UNIT((#360,#361));
#367=MEASURE_REPRESENTATION_ITEM('density measure',
POSITIVE_RATIO_MEASURE(1.),#366);
#368=PROPERTY_DEFINITION_REPRESENTATION(#373,#370);
#369=PROPERTY_DEFINITION_REPRESENTATION(#374,#371);
#370=REPRESENTATION('material name',(#372),#587);
#371=REPRESENTATION('density',(#367),#587);
#372=DESCRIPTIVE_REPRESENTATION_ITEM('Allgemein','Allgemein');
#373=PROPERTY_DEFINITION('material property','material name',#597);
#374=PROPERTY_DEFINITION('material property','density of part',#597);
#375=DATE_TIME_ROLE('creation_date');
#376=APPLIED_DATE_AND_TIME_ASSIGNMENT(#377,#375,(#597));
#377=DATE_AND_TIME(#378,#379);
#378=CALENDAR_DATE(2011,10,11);
#379=LOCAL_TIME(0,0,0.,#380);
#380=COORDINATED_UNIVERSAL_TIME_OFFSET(0,0,.BEHIND.);
#381=AXIS2_PLACEMENT_3D('',#486,#400,#401);
#382=AXIS2_PLACEMENT_3D('',#487,#402,#403);
#383=AXIS2_PLACEMENT_3D('',#496,#408,#409);
#384=AXIS2_PLACEMENT_3D('',#502,#413,#414);
#385=AXIS2_PLACEMENT_3D('',#508,#418,#419);
#386=AXIS2_PLACEMENT_3D('',#514,#423,#424);
#387=AXIS2_PLACEMENT_3D('',#520,#428,#429);
#388=AXIS2_PLACEMENT_3D('',#526,#433,#434);
#389=AXIS2_PLACEMENT_3D('',#532,#438,#439);
#390=AXIS2_PLACEMENT_3D('',#538,#443,#444);
#391=AXIS2_PLACEMENT_3D('',#544,#448,#449);
#392=AXIS2_PLACEMENT_3D('',#550,#453,#454);
#393=AXIS2_PLACEMENT_3D('',#556,#458,#459);
#394=AXIS2_PLACEMENT_3D('',#562,#463,#464);
#395=AXIS2_PLACEMENT_3D('',#568,#468,#469);
#396=AXIS2_PLACEMENT_3D('',#574,#473,#474);
#397=AXIS2_PLACEMENT_3D('',#580,#478,#479);
#398=AXIS2_PLACEMENT_3D('',#583,#482,#483);
#399=AXIS2_PLACEMENT_3D('',#584,#484,#485);
#400=DIRECTION('axis',(0.,0.,1.));
#401=DIRECTION('refdir',(1.,0.,0.));
#402=DIRECTION('center_axis',(-1.,0.,0.));
#403=DIRECTION('ref_axis',(0.,0.,1.));
#404=DIRECTION('',(0.,1.,0.));
#405=DIRECTION('',(0.,0.,1.));
#406=DIRECTION('',(0.,-1.,0.));
#407=DIRECTION('',(0.,0.,1.));
#408=DIRECTION('center_axis',(-0.274721127897378,0.961523947640823,0.));
#409=DIRECTION('ref_axis',(0.,0.,1.));
#410=DIRECTION('',(0.961523947640823,0.274721127897378,0.));
#411=DIRECTION('',(0.,0.,1.));
#412=DIRECTION('',(-0.961523947640823,-0.274721127897378,0.));
#413=DIRECTION('center_axis',(-0.985030467155704,0.172380331752248,0.));
#414=DIRECTION('ref_axis',(0.,0.,1.));
#415=DIRECTION('',(0.172380331752248,0.985030467155704,0.));
#416=DIRECTION('',(0.,0.,1.));
#417=DIRECTION('',(-0.172380331752248,-0.985030467155704,0.));
#418=DIRECTION('center_axis',(0.409938501027306,0.912113164785755,0.));
#419=DIRECTION('ref_axis',(0.,0.,1.));
#420=DIRECTION('',(0.912113164785755,-0.409938501027306,0.));
#421=DIRECTION('',(0.,0.,1.));
#422=DIRECTION('',(-0.912113164785755,0.409938501027306,0.));
#423=DIRECTION('center_axis',(0.985030467155704,0.172380331752249,0.));
#424=DIRECTION('ref_axis',(0.,0.,-1.));
#425=DIRECTION('',(0.172380331752249,-0.985030467155704,0.));
#426=DIRECTION('',(0.,0.,1.));
#427=DIRECTION('',(-0.172380331752249,0.985030467155704,0.));
#428=DIRECTION('center_axis',(0.274721127897378,0.961523947640823,0.));
#429=DIRECTION('ref_axis',(0.,0.,1.));
#430=DIRECTION('',(0.961523947640823,-0.274721127897378,0.));
#431=DIRECTION('',(0.,0.,1.));
#432=DIRECTION('',(-0.961523947640823,0.274721127897378,0.));
#433=DIRECTION('center_axis',(1.,0.,0.));
#434=DIRECTION('ref_axis',(0.,0.,-1.));
#435=DIRECTION('',(0.,-1.,0.));
#436=DIRECTION('',(0.,0.,1.));
#437=DIRECTION('',(0.,1.,0.));
#438=DIRECTION('center_axis',(0.,-1.,0.));
#439=DIRECTION('ref_axis',(0.,0.,-1.));
#440=DIRECTION('',(-1.,0.,0.));
#441=DIRECTION('',(0.,0.,1.));
#442=DIRECTION('',(1.,0.,0.));
#443=DIRECTION('center_axis',(-1.,0.,0.));
#444=DIRECTION('ref_axis',(0.,0.,1.));
#445=DIRECTION('',(0.,1.,0.));
#446=DIRECTION('',(0.,0.,1.));
#447=DIRECTION('',(0.,-1.,0.));
#448=DIRECTION('center_axis',(0.,-1.,0.));
#449=DIRECTION('ref_axis',(0.,0.,-1.));
#450=DIRECTION('',(-1.,0.,0.));
#451=DIRECTION('',(0.,0.,1.));
#452=DIRECTION('',(1.,0.,0.));
#453=DIRECTION('center_axis',(1.,0.,0.));
#454=DIRECTION('ref_axis',(0.,0.,-1.));
#455=DIRECTION('',(0.,-1.,0.));
#456=DIRECTION('',(0.,0.,1.));
#457=DIRECTION('',(0.,1.,0.));
#458=DIRECTION('center_axis',(0.,-1.,0.));
#459=DIRECTION('ref_axis',(0.,0.,-1.));
#460=DIRECTION('',(-1.,0.,0.));
#461=DIRECTION('',(0.,0.,1.));
#462=DIRECTION('',(1.,0.,0.));
#463=DIRECTION('center_axis',(-1.,0.,0.));
#464=DIRECTION('ref_axis',(0.,0.,1.));
#465=DIRECTION('',(0.,1.,0.));
#466=DIRECTION('',(0.,0.,1.));
#467=DIRECTION('',(0.,-1.,0.));
#468=DIRECTION('center_axis',(2.08166817117217E-16,-1.,0.));
#469=DIRECTION('ref_axis',(0.,0.,-1.));
#470=DIRECTION('',(-1.,-2.08166817117217E-16,0.));
#471=DIRECTION('',(0.,0.,1.));
#472=DIRECTION('',(1.,2.08166817117217E-16,0.));
#473=DIRECTION('center_axis',(1.,0.,0.));
#474=DIRECTION('ref_axis',(0.,0.,-1.));
#475=DIRECTION('',(0.,-1.,0.));
#476=DIRECTION('',(0.,0.,1.));
#477=DIRECTION('',(0.,1.,0.));
#478=DIRECTION('center_axis',(0.,-1.,0.));
#479=DIRECTION('ref_axis',(0.,0.,-1.));
#480=DIRECTION('',(-1.,0.,0.));
#481=DIRECTION('',(1.,0.,0.));
#482=DIRECTION('center_axis',(0.,0.,1.));
#483=DIRECTION('ref_axis',(1.,0.,0.));
#484=DIRECTION('center_axis',(0.,0.,1.));
#485=DIRECTION('ref_axis',(1.,0.,0.));
#486=CARTESIAN_POINT('',(0.,0.,0.));
#487=CARTESIAN_POINT('Origin',(0.,0.,0.));
#488=CARTESIAN_POINT('',(0.,0.,16.));
#489=CARTESIAN_POINT('',(0.,5.,16.));
#490=CARTESIAN_POINT('',(0.,5.,16.));
#491=CARTESIAN_POINT('',(0.,5.,0.));
#492=CARTESIAN_POINT('',(0.,5.,0.));
#493=CARTESIAN_POINT('',(0.,0.,0.));
#494=CARTESIAN_POINT('',(0.,5.,0.));
#495=CARTESIAN_POINT('',(0.,0.,0.));
#496=CARTESIAN_POINT('Origin',(0.,5.,0.));
#497=CARTESIAN_POINT('',(5.25,6.5,16.));
#498=CARTESIAN_POINT('',(5.25,6.5,16.));
#499=CARTESIAN_POINT('',(5.25,6.5,0.));
#500=CARTESIAN_POINT('',(5.25,6.5,0.));
#501=CARTESIAN_POINT('',(5.25,6.5,0.));
#502=CARTESIAN_POINT('Origin',(7.,16.5,0.));
#503=CARTESIAN_POINT('',(7.4375,19.,16.));
#504=CARTESIAN_POINT('',(7.4375,19.,16.));
#505=CARTESIAN_POINT('',(7.4375,19.,0.));
#506=CARTESIAN_POINT('',(7.4375,19.,0.));
#507=CARTESIAN_POINT('',(7.4375,19.,0.));
#508=CARTESIAN_POINT('Origin',(7.4375,19.,0.));
#509=CARTESIAN_POINT('',(13.,16.5,16.));
#510=CARTESIAN_POINT('',(13.,16.5,16.));
#511=CARTESIAN_POINT('',(13.,16.5,0.));
#512=CARTESIAN_POINT('',(13.,16.5,0.));
#513=CARTESIAN_POINT('',(13.,16.5,0.));
#514=CARTESIAN_POINT('Origin',(13.,16.5,0.));
#515=CARTESIAN_POINT('',(14.75,6.5,16.));
#516=CARTESIAN_POINT('',(14.75,6.5,16.));
#517=CARTESIAN_POINT('',(14.75,6.5,0.));
#518=CARTESIAN_POINT('',(14.75,6.5,0.));
#519=CARTESIAN_POINT('',(14.75,6.5,0.));
#520=CARTESIAN_POINT('Origin',(14.75,6.5,0.));
#521=CARTESIAN_POINT('',(20.,5.,16.));
#522=CARTESIAN_POINT('',(20.,5.,16.));
#523=CARTESIAN_POINT('',(20.,5.,0.));
#524=CARTESIAN_POINT('',(20.,5.,0.));
#525=CARTESIAN_POINT('',(20.,5.,0.));
#526=CARTESIAN_POINT('Origin',(20.,5.,0.));
#527=CARTESIAN_POINT('',(20.,0.,16.));
#528=CARTESIAN_POINT('',(20.,0.,16.));
#529=CARTESIAN_POINT('',(20.,0.,0.));
#530=CARTESIAN_POINT('',(20.,0.,0.));
#531=CARTESIAN_POINT('',(20.,0.,0.));
#532=CARTESIAN_POINT('Origin',(20.,0.,0.));
#533=CARTESIAN_POINT('',(17.5,0.,16.));
#534=CARTESIAN_POINT('',(17.5,0.,16.));
#535=CARTESIAN_POINT('',(17.5,0.,0.));
#536=CARTESIAN_POINT('',(17.5,0.,0.));
#537=CARTESIAN_POINT('',(17.5,0.,0.));
#538=CARTESIAN_POINT('Origin',(17.5,0.,0.));
#539=CARTESIAN_POINT('',(17.5,1.,16.));
#540=CARTESIAN_POINT('',(17.5,1.,16.));
#541=CARTESIAN_POINT('',(17.5,1.,0.));
#542=CARTESIAN_POINT('',(17.5,1.,0.));
#543=CARTESIAN_POINT('',(17.5,1.,0.));
#544=CARTESIAN_POINT('Origin',(17.5,1.,0.));
#545=CARTESIAN_POINT('',(13.5,1.,16.));
#546=CARTESIAN_POINT('',(13.5,1.,16.));
#547=CARTESIAN_POINT('',(13.5,1.,0.));
#548=CARTESIAN_POINT('',(13.5,1.,0.));
#549=CARTESIAN_POINT('',(13.5,1.,0.));
#550=CARTESIAN_POINT('Origin',(13.5,1.,0.));
#551=CARTESIAN_POINT('',(13.5,0.,16.));
#552=CARTESIAN_POINT('',(13.5,0.,16.));
#553=CARTESIAN_POINT('',(13.5,0.,0.));
#554=CARTESIAN_POINT('',(13.5,0.,0.));
#555=CARTESIAN_POINT('',(13.5,0.,0.));
#556=CARTESIAN_POINT('Origin',(13.5,0.,0.));
#557=CARTESIAN_POINT('',(6.5,0.,16.));
#558=CARTESIAN_POINT('',(6.5,0.,16.));
#559=CARTESIAN_POINT('',(6.5,0.,0.));
#560=CARTESIAN_POINT('',(6.5,0.,0.));
#561=CARTESIAN_POINT('',(6.5,0.,0.));
#562=CARTESIAN_POINT('Origin',(6.5,0.,0.));
#563=CARTESIAN_POINT('',(6.5,1.,16.));
#564=CARTESIAN_POINT('',(6.5,1.,16.));
#565=CARTESIAN_POINT('',(6.5,1.,0.));
#566=CARTESIAN_POINT('',(6.5,1.,0.));
#567=CARTESIAN_POINT('',(6.5,1.,0.));
#568=CARTESIAN_POINT('Origin',(6.5,1.,0.));
#569=CARTESIAN_POINT('',(2.5,1.,16.));
#570=CARTESIAN_POINT('',(2.5,1.,16.));
#571=CARTESIAN_POINT('',(2.5,1.,0.));
#572=CARTESIAN_POINT('',(2.5,1.,0.));
#573=CARTESIAN_POINT('',(2.5,1.,0.));
#574=CARTESIAN_POINT('Origin',(2.5,1.,0.));
#575=CARTESIAN_POINT('',(2.5,0.,16.));
#576=CARTESIAN_POINT('',(2.5,0.,16.));
#577=CARTESIAN_POINT('',(2.5,0.,0.));
#578=CARTESIAN_POINT('',(2.5,0.,0.));
#579=CARTESIAN_POINT('',(2.5,0.,0.));
#580=CARTESIAN_POINT('Origin',(2.5,0.,0.));
#581=CARTESIAN_POINT('',(0.,0.,16.));
#582=CARTESIAN_POINT('',(0.,0.,0.));
#583=CARTESIAN_POINT('Origin',(9.92249247510483,6.5607881443449,0.));
#584=CARTESIAN_POINT('Origin',(9.92249247510483,6.5607881443449,16.));
#585=UNCERTAINTY_MEASURE_WITH_UNIT(LENGTH_MEASURE(0.01),#589,
'DISTANCE_ACCURACY_VALUE',
'Maximum model space distance between geometric entities at asserted c
onnectivities');
#586=UNCERTAINTY_MEASURE_WITH_UNIT(LENGTH_MEASURE(0.01),#589,
'DISTANCE_ACCURACY_VALUE',
'Maximum model space distance between geometric entities at asserted c
onnectivities');
#587=(
GEOMETRIC_REPRESENTATION_CONTEXT(3)
GLOBAL_UNCERTAINTY_ASSIGNED_CONTEXT((#585))
GLOBAL_UNIT_ASSIGNED_CONTEXT((#589,#591,#592))
REPRESENTATION_CONTEXT('','3D')
);
#588=(
GEOMETRIC_REPRESENTATION_CONTEXT(3)
GLOBAL_UNCERTAINTY_ASSIGNED_CONTEXT((#586))
GLOBAL_UNIT_ASSIGNED_CONTEXT((#589,#591,#592))
REPRESENTATION_CONTEXT('','3D')
);
#589=(
LENGTH_UNIT()
NAMED_UNIT(*)
SI_UNIT(.MILLI.,.METRE.)
);
#590=(
LENGTH_UNIT()
NAMED_UNIT(*)
SI_UNIT(.CENTI.,.METRE.)
);
#591=(
NAMED_UNIT(*)
PLANE_ANGLE_UNIT()
SI_UNIT($,.RADIAN.)
);
#592=(
NAMED_UNIT(*)
SI_UNIT($,.STERADIAN.)
SOLID_ANGLE_UNIT()
);
#593=SHAPE_DEFINITION_REPRESENTATION(#594,#595);
#594=PRODUCT_DEFINITION_SHAPE('',$,#597);
#595=SHAPE_REPRESENTATION('',(#381),#587);
#596=PRODUCT_DEFINITION_CONTEXT('part definition',#601,'design');
#597=PRODUCT_DEFINITION('WKZ-0083','E_3_01_06_08_00_WKZ-0083',#598,#596);
#598=PRODUCT_DEFINITION_FORMATION('',$,#603);
#599=PRODUCT_RELATED_PRODUCT_CATEGORY('E_3_01_06_08_00_WKZ-0083',
'E_3_01_06_08_00_WKZ-0083',(#603));
#600=APPLICATION_PROTOCOL_DEFINITION('international standard',
'automotive_design',2009,#601);
#601=APPLICATION_CONTEXT(
'Core Data for Automotive Mechanical Design Process');
#602=PRODUCT_CONTEXT('part definition',#601,'mechanical');
#603=PRODUCT('WKZ-0083','E_3_01_06_08_00_WKZ-0083',$,(#602));
#604=PRESENTATION_STYLE_ASSIGNMENT((#605));
#605=SURFACE_STYLE_USAGE(.BOTH.,#608);
#606=SURFACE_STYLE_RENDERING_WITH_PROPERTIES($,#612,(#607));
#607=SURFACE_STYLE_TRANSPARENT(0.);
#608=SURFACE_SIDE_STYLE('',(#609,#606));
#609=SURFACE_STYLE_FILL_AREA(#610);
#610=FILL_AREA_STYLE('',(#611));
#611=FILL_AREA_STYLE_COLOUR('',#612);
#612=COLOUR_RGB('',0.749019607843137,0.749019607843137,0.749019607843137);
ENDSEC;
END-ISO-10303-21;
