ISO-10303-21;
HEADER;
/* Generated by software containing ST-Developer
 * from STEP Tools, Inc. (www.steptools.com) 
 */

FILE_DESCRIPTION(
/* description */ (''),
/* implementation_level */ '2;1');

FILE_NAME(
/* name */ 'E_3_01_06_07_00_WKZ-0055.stp',
/* time_stamp */ '2025-11-24T10:36:22+01:00',
/* author */ ('d.fischer'),
/* organization */ (''),
/* preprocessor_version */ 'ST-DEVELOPER v20',
/* originating_system */ 'Autodesk Inventor 2025',
/* authorisation */ '');

FILE_SCHEMA (('AUTOMOTIVE_DESIGN { 1 0 10303 214 3 1 1 }'));
ENDSEC;

DATA;
#10=MECHANICAL_DESIGN_GEOMETRIC_PRESENTATION_REPRESENTATION('',(#13),#524);
#11=SHAPE_REPRESENTATION_RELATIONSHIP('SRR','None',#531,#12);
#12=ADVANCED_BREP_SHAPE_REPRESENTATION('',(#14),#523);
#13=STYLED_ITEM('',(#540),#14);
#14=MANIFOLD_SOLID_BREP('Volumenk\X\F6rper1',#315);
#15=CYLINDRICAL_SURFACE('',#350,31.);
#16=FACE_OUTER_BOUND('',#32,.T.);
#17=FACE_OUTER_BOUND('',#33,.T.);
#18=FACE_OUTER_BOUND('',#34,.T.);
#19=FACE_OUTER_BOUND('',#35,.T.);
#20=FACE_OUTER_BOUND('',#36,.T.);
#21=FACE_OUTER_BOUND('',#37,.T.);
#22=FACE_OUTER_BOUND('',#38,.T.);
#23=FACE_OUTER_BOUND('',#39,.T.);
#24=FACE_OUTER_BOUND('',#40,.T.);
#25=FACE_OUTER_BOUND('',#41,.T.);
#26=FACE_OUTER_BOUND('',#42,.T.);
#27=FACE_OUTER_BOUND('',#43,.T.);
#28=FACE_OUTER_BOUND('',#44,.T.);
#29=FACE_OUTER_BOUND('',#45,.T.);
#30=FACE_OUTER_BOUND('',#46,.T.);
#31=FACE_OUTER_BOUND('',#47,.T.);
#32=EDGE_LOOP('',(#200,#201,#202,#203,#204,#205,#206,#207,#208,#209,#210,
#211,#212,#213));
#33=EDGE_LOOP('',(#214,#215,#216,#217));
#34=EDGE_LOOP('',(#218,#219,#220,#221));
#35=EDGE_LOOP('',(#222,#223,#224,#225));
#36=EDGE_LOOP('',(#226,#227,#228,#229));
#37=EDGE_LOOP('',(#230,#231,#232,#233));
#38=EDGE_LOOP('',(#234,#235,#236,#237));
#39=EDGE_LOOP('',(#238,#239,#240,#241));
#40=EDGE_LOOP('',(#242,#243,#244,#245));
#41=EDGE_LOOP('',(#246,#247,#248,#249));
#42=EDGE_LOOP('',(#250,#251,#252,#253));
#43=EDGE_LOOP('',(#254,#255,#256,#257));
#44=EDGE_LOOP('',(#258,#259,#260,#261));
#45=EDGE_LOOP('',(#262,#263,#264,#265));
#46=EDGE_LOOP('',(#266,#267,#268,#269));
#47=EDGE_LOOP('',(#270,#271,#272,#273,#274,#275,#276,#277,#278,#279,#280,
#281,#282,#283));
#48=CIRCLE('',#339,31.);
#49=CIRCLE('',#351,31.);
#50=LINE('',#438,#90);
#51=LINE('',#440,#91);
#52=LINE('',#442,#92);
#53=LINE('',#444,#93);
#54=LINE('',#446,#94);
#55=LINE('',#448,#95);
#56=LINE('',#450,#96);
#57=LINE('',#452,#97);
#58=LINE('',#454,#98);
#59=LINE('',#456,#99);
#60=LINE('',#458,#100);
#61=LINE('',#460,#101);
#62=LINE('',#463,#102);
#63=LINE('',#467,#103);
#64=LINE('',#468,#104);
#65=LINE('',#469,#105);
#66=LINE('',#472,#106);
#67=LINE('',#473,#107);
#68=LINE('',#476,#108);
#69=LINE('',#477,#109);
#70=LINE('',#480,#110);
#71=LINE('',#481,#111);
#72=LINE('',#484,#112);
#73=LINE('',#485,#113);
#74=LINE('',#488,#114);
#75=LINE('',#489,#115);
#76=LINE('',#492,#116);
#77=LINE('',#493,#117);
#78=LINE('',#496,#118);
#79=LINE('',#497,#119);
#80=LINE('',#500,#120);
#81=LINE('',#501,#121);
#82=LINE('',#504,#122);
#83=LINE('',#505,#123);
#84=LINE('',#509,#124);
#85=LINE('',#512,#125);
#86=LINE('',#513,#126);
#87=LINE('',#516,#127);
#88=LINE('',#517,#128);
#89=LINE('',#519,#129);
#90=VECTOR('',#360,10.);
#91=VECTOR('',#361,10.);
#92=VECTOR('',#362,10.);
#93=VECTOR('',#363,10.);
#94=VECTOR('',#364,10.);
#95=VECTOR('',#365,10.);
#96=VECTOR('',#366,10.);
#97=VECTOR('',#367,10.);
#98=VECTOR('',#368,10.);
#99=VECTOR('',#369,10.);
#100=VECTOR('',#370,10.);
#101=VECTOR('',#371,10.);
#102=VECTOR('',#374,10.);
#103=VECTOR('',#377,10.);
#104=VECTOR('',#378,10.);
#105=VECTOR('',#379,10.);
#106=VECTOR('',#382,10.);
#107=VECTOR('',#383,10.);
#108=VECTOR('',#386,10.);
#109=VECTOR('',#387,10.);
#110=VECTOR('',#390,10.);
#111=VECTOR('',#391,10.);
#112=VECTOR('',#394,10.);
#113=VECTOR('',#395,10.);
#114=VECTOR('',#398,10.);
#115=VECTOR('',#399,10.);
#116=VECTOR('',#402,10.);
#117=VECTOR('',#403,10.);
#118=VECTOR('',#406,10.);
#119=VECTOR('',#407,10.);
#120=VECTOR('',#410,10.);
#121=VECTOR('',#411,10.);
#122=VECTOR('',#414,10.);
#123=VECTOR('',#415,10.);
#124=VECTOR('',#420,10.);
#125=VECTOR('',#423,10.);
#126=VECTOR('',#424,10.);
#127=VECTOR('',#427,10.);
#128=VECTOR('',#428,10.);
#129=VECTOR('',#431,10.);
#130=VERTEX_POINT('',#436);
#131=VERTEX_POINT('',#437);
#132=VERTEX_POINT('',#439);
#133=VERTEX_POINT('',#441);
#134=VERTEX_POINT('',#443);
#135=VERTEX_POINT('',#445);
#136=VERTEX_POINT('',#447);
#137=VERTEX_POINT('',#449);
#138=VERTEX_POINT('',#451);
#139=VERTEX_POINT('',#453);
#140=VERTEX_POINT('',#455);
#141=VERTEX_POINT('',#457);
#142=VERTEX_POINT('',#459);
#143=VERTEX_POINT('',#461);
#144=VERTEX_POINT('',#465);
#145=VERTEX_POINT('',#466);
#146=VERTEX_POINT('',#471);
#147=VERTEX_POINT('',#475);
#148=VERTEX_POINT('',#479);
#149=VERTEX_POINT('',#483);
#150=VERTEX_POINT('',#487);
#151=VERTEX_POINT('',#491);
#152=VERTEX_POINT('',#495);
#153=VERTEX_POINT('',#499);
#154=VERTEX_POINT('',#503);
#155=VERTEX_POINT('',#507);
#156=VERTEX_POINT('',#511);
#157=VERTEX_POINT('',#515);
#158=EDGE_CURVE('',#130,#131,#50,.T.);
#159=EDGE_CURVE('',#132,#130,#51,.T.);
#160=EDGE_CURVE('',#133,#132,#52,.T.);
#161=EDGE_CURVE('',#134,#133,#53,.T.);
#162=EDGE_CURVE('',#135,#134,#54,.T.);
#163=EDGE_CURVE('',#136,#135,#55,.T.);
#164=EDGE_CURVE('',#137,#136,#56,.T.);
#165=EDGE_CURVE('',#138,#137,#57,.T.);
#166=EDGE_CURVE('',#139,#138,#58,.T.);
#167=EDGE_CURVE('',#140,#139,#59,.T.);
#168=EDGE_CURVE('',#141,#140,#60,.T.);
#169=EDGE_CURVE('',#142,#141,#61,.T.);
#170=EDGE_CURVE('',#143,#142,#48,.T.);
#171=EDGE_CURVE('',#131,#143,#62,.T.);
#172=EDGE_CURVE('',#144,#145,#63,.T.);
#173=EDGE_CURVE('',#145,#133,#64,.T.);
#174=EDGE_CURVE('',#144,#132,#65,.T.);
#175=EDGE_CURVE('',#145,#146,#66,.T.);
#176=EDGE_CURVE('',#146,#134,#67,.T.);
#177=EDGE_CURVE('',#146,#147,#68,.T.);
#178=EDGE_CURVE('',#147,#135,#69,.T.);
#179=EDGE_CURVE('',#147,#148,#70,.T.);
#180=EDGE_CURVE('',#148,#136,#71,.T.);
#181=EDGE_CURVE('',#148,#149,#72,.T.);
#182=EDGE_CURVE('',#149,#137,#73,.T.);
#183=EDGE_CURVE('',#149,#150,#74,.T.);
#184=EDGE_CURVE('',#150,#138,#75,.T.);
#185=EDGE_CURVE('',#150,#151,#76,.T.);
#186=EDGE_CURVE('',#151,#139,#77,.T.);
#187=EDGE_CURVE('',#151,#152,#78,.T.);
#188=EDGE_CURVE('',#152,#140,#79,.T.);
#189=EDGE_CURVE('',#152,#153,#80,.T.);
#190=EDGE_CURVE('',#153,#141,#81,.T.);
#191=EDGE_CURVE('',#153,#154,#82,.T.);
#192=EDGE_CURVE('',#154,#142,#83,.T.);
#193=EDGE_CURVE('',#154,#155,#49,.T.);
#194=EDGE_CURVE('',#155,#143,#84,.T.);
#195=EDGE_CURVE('',#155,#156,#85,.T.);
#196=EDGE_CURVE('',#156,#131,#86,.T.);
#197=EDGE_CURVE('',#156,#157,#87,.T.);
#198=EDGE_CURVE('',#130,#157,#88,.T.);
#199=EDGE_CURVE('',#157,#144,#89,.T.);
#200=ORIENTED_EDGE('',*,*,#158,.F.);
#201=ORIENTED_EDGE('',*,*,#159,.F.);
#202=ORIENTED_EDGE('',*,*,#160,.F.);
#203=ORIENTED_EDGE('',*,*,#161,.F.);
#204=ORIENTED_EDGE('',*,*,#162,.F.);
#205=ORIENTED_EDGE('',*,*,#163,.F.);
#206=ORIENTED_EDGE('',*,*,#164,.F.);
#207=ORIENTED_EDGE('',*,*,#165,.F.);
#208=ORIENTED_EDGE('',*,*,#166,.F.);
#209=ORIENTED_EDGE('',*,*,#167,.F.);
#210=ORIENTED_EDGE('',*,*,#168,.F.);
#211=ORIENTED_EDGE('',*,*,#169,.F.);
#212=ORIENTED_EDGE('',*,*,#170,.F.);
#213=ORIENTED_EDGE('',*,*,#171,.F.);
#214=ORIENTED_EDGE('',*,*,#172,.T.);
#215=ORIENTED_EDGE('',*,*,#173,.T.);
#216=ORIENTED_EDGE('',*,*,#160,.T.);
#217=ORIENTED_EDGE('',*,*,#174,.F.);
#218=ORIENTED_EDGE('',*,*,#175,.T.);
#219=ORIENTED_EDGE('',*,*,#176,.T.);
#220=ORIENTED_EDGE('',*,*,#161,.T.);
#221=ORIENTED_EDGE('',*,*,#173,.F.);
#222=ORIENTED_EDGE('',*,*,#177,.T.);
#223=ORIENTED_EDGE('',*,*,#178,.T.);
#224=ORIENTED_EDGE('',*,*,#162,.T.);
#225=ORIENTED_EDGE('',*,*,#176,.F.);
#226=ORIENTED_EDGE('',*,*,#179,.T.);
#227=ORIENTED_EDGE('',*,*,#180,.T.);
#228=ORIENTED_EDGE('',*,*,#163,.T.);
#229=ORIENTED_EDGE('',*,*,#178,.F.);
#230=ORIENTED_EDGE('',*,*,#181,.T.);
#231=ORIENTED_EDGE('',*,*,#182,.T.);
#232=ORIENTED_EDGE('',*,*,#164,.T.);
#233=ORIENTED_EDGE('',*,*,#180,.F.);
#234=ORIENTED_EDGE('',*,*,#183,.T.);
#235=ORIENTED_EDGE('',*,*,#184,.T.);
#236=ORIENTED_EDGE('',*,*,#165,.T.);
#237=ORIENTED_EDGE('',*,*,#182,.F.);
#238=ORIENTED_EDGE('',*,*,#185,.T.);
#239=ORIENTED_EDGE('',*,*,#186,.T.);
#240=ORIENTED_EDGE('',*,*,#166,.T.);
#241=ORIENTED_EDGE('',*,*,#184,.F.);
#242=ORIENTED_EDGE('',*,*,#187,.T.);
#243=ORIENTED_EDGE('',*,*,#188,.T.);
#244=ORIENTED_EDGE('',*,*,#167,.T.);
#245=ORIENTED_EDGE('',*,*,#186,.F.);
#246=ORIENTED_EDGE('',*,*,#189,.T.);
#247=ORIENTED_EDGE('',*,*,#190,.T.);
#248=ORIENTED_EDGE('',*,*,#168,.T.);
#249=ORIENTED_EDGE('',*,*,#188,.F.);
#250=ORIENTED_EDGE('',*,*,#191,.T.);
#251=ORIENTED_EDGE('',*,*,#192,.T.);
#252=ORIENTED_EDGE('',*,*,#169,.T.);
#253=ORIENTED_EDGE('',*,*,#190,.F.);
#254=ORIENTED_EDGE('',*,*,#193,.T.);
#255=ORIENTED_EDGE('',*,*,#194,.T.);
#256=ORIENTED_EDGE('',*,*,#170,.T.);
#257=ORIENTED_EDGE('',*,*,#192,.F.);
#258=ORIENTED_EDGE('',*,*,#195,.T.);
#259=ORIENTED_EDGE('',*,*,#196,.T.);
#260=ORIENTED_EDGE('',*,*,#171,.T.);
#261=ORIENTED_EDGE('',*,*,#194,.F.);
#262=ORIENTED_EDGE('',*,*,#197,.T.);
#263=ORIENTED_EDGE('',*,*,#198,.F.);
#264=ORIENTED_EDGE('',*,*,#158,.T.);
#265=ORIENTED_EDGE('',*,*,#196,.F.);
#266=ORIENTED_EDGE('',*,*,#199,.T.);
#267=ORIENTED_EDGE('',*,*,#174,.T.);
#268=ORIENTED_EDGE('',*,*,#159,.T.);
#269=ORIENTED_EDGE('',*,*,#198,.T.);
#270=ORIENTED_EDGE('',*,*,#172,.F.);
#271=ORIENTED_EDGE('',*,*,#199,.F.);
#272=ORIENTED_EDGE('',*,*,#197,.F.);
#273=ORIENTED_EDGE('',*,*,#195,.F.);
#274=ORIENTED_EDGE('',*,*,#193,.F.);
#275=ORIENTED_EDGE('',*,*,#191,.F.);
#276=ORIENTED_EDGE('',*,*,#189,.F.);
#277=ORIENTED_EDGE('',*,*,#187,.F.);
#278=ORIENTED_EDGE('',*,*,#185,.F.);
#279=ORIENTED_EDGE('',*,*,#183,.F.);
#280=ORIENTED_EDGE('',*,*,#181,.F.);
#281=ORIENTED_EDGE('',*,*,#179,.F.);
#282=ORIENTED_EDGE('',*,*,#177,.F.);
#283=ORIENTED_EDGE('',*,*,#175,.F.);
#284=PLANE('',#338);
#285=PLANE('',#340);
#286=PLANE('',#341);
#287=PLANE('',#342);
#288=PLANE('',#343);
#289=PLANE('',#344);
#290=PLANE('',#345);
#291=PLANE('',#346);
#292=PLANE('',#347);
#293=PLANE('',#348);
#294=PLANE('',#349);
#295=PLANE('',#352);
#296=PLANE('',#353);
#297=PLANE('',#354);
#298=PLANE('',#355);
#299=ADVANCED_FACE('',(#16),#284,.F.);
#300=ADVANCED_FACE('',(#17),#285,.T.);
#301=ADVANCED_FACE('',(#18),#286,.T.);
#302=ADVANCED_FACE('',(#19),#287,.T.);
#303=ADVANCED_FACE('',(#20),#288,.T.);
#304=ADVANCED_FACE('',(#21),#289,.T.);
#305=ADVANCED_FACE('',(#22),#290,.T.);
#306=ADVANCED_FACE('',(#23),#291,.T.);
#307=ADVANCED_FACE('',(#24),#292,.T.);
#308=ADVANCED_FACE('',(#25),#293,.T.);
#309=ADVANCED_FACE('',(#26),#294,.T.);
#310=ADVANCED_FACE('',(#27),#15,.T.);
#311=ADVANCED_FACE('',(#28),#295,.T.);
#312=ADVANCED_FACE('',(#29),#296,.T.);
#313=ADVANCED_FACE('',(#30),#297,.T.);
#314=ADVANCED_FACE('',(#31),#298,.T.);
#315=CLOSED_SHELL('',(#299,#300,#301,#302,#303,#304,#305,#306,#307,#308,
#309,#310,#311,#312,#313,#314));
#316=DERIVED_UNIT_ELEMENT(#319,1.);
#317=DERIVED_UNIT_ELEMENT(#526,-3.);
#318=DIMENSIONAL_EXPONENTS(0.,1.,0.,0.,0.,0.,0.);
#319=(
CONVERSION_BASED_UNIT('gram',#321)
MASS_UNIT()
NAMED_UNIT(#318)
);
#320=(
MASS_UNIT()
NAMED_UNIT(*)
SI_UNIT(.KILO.,.GRAM.)
);
#321=MASS_MEASURE_WITH_UNIT(MASS_MEASURE(0.001),#320);
#322=DERIVED_UNIT((#316,#317));
#323=MEASURE_REPRESENTATION_ITEM('density measure',
POSITIVE_RATIO_MEASURE(8.03),#322);
#324=PROPERTY_DEFINITION_REPRESENTATION(#329,#326);
#325=PROPERTY_DEFINITION_REPRESENTATION(#330,#327);
#326=REPRESENTATION('material name',(#328),#523);
#327=REPRESENTATION('density',(#323),#523);
#328=DESCRIPTIVE_REPRESENTATION_ITEM('1.4301','1.4301');
#329=PROPERTY_DEFINITION('material property','material name',#533);
#330=PROPERTY_DEFINITION('material property','density of part',#533);
#331=DATE_TIME_ROLE('creation_date');
#332=APPLIED_DATE_AND_TIME_ASSIGNMENT(#333,#331,(#533));
#333=DATE_AND_TIME(#334,#335);
#334=CALENDAR_DATE(2011,26,10);
#335=LOCAL_TIME(0,0,0.,#336);
#336=COORDINATED_UNIVERSAL_TIME_OFFSET(0,0,.BEHIND.);
#337=AXIS2_PLACEMENT_3D('',#434,#356,#357);
#338=AXIS2_PLACEMENT_3D('',#435,#358,#359);
#339=AXIS2_PLACEMENT_3D('',#462,#372,#373);
#340=AXIS2_PLACEMENT_3D('',#464,#375,#376);
#341=AXIS2_PLACEMENT_3D('',#470,#380,#381);
#342=AXIS2_PLACEMENT_3D('',#474,#384,#385);
#343=AXIS2_PLACEMENT_3D('',#478,#388,#389);
#344=AXIS2_PLACEMENT_3D('',#482,#392,#393);
#345=AXIS2_PLACEMENT_3D('',#486,#396,#397);
#346=AXIS2_PLACEMENT_3D('',#490,#400,#401);
#347=AXIS2_PLACEMENT_3D('',#494,#404,#405);
#348=AXIS2_PLACEMENT_3D('',#498,#408,#409);
#349=AXIS2_PLACEMENT_3D('',#502,#412,#413);
#350=AXIS2_PLACEMENT_3D('',#506,#416,#417);
#351=AXIS2_PLACEMENT_3D('',#508,#418,#419);
#352=AXIS2_PLACEMENT_3D('',#510,#421,#422);
#353=AXIS2_PLACEMENT_3D('',#514,#425,#426);
#354=AXIS2_PLACEMENT_3D('',#518,#429,#430);
#355=AXIS2_PLACEMENT_3D('',#520,#432,#433);
#356=DIRECTION('axis',(0.,0.,1.));
#357=DIRECTION('refdir',(1.,0.,0.));
#358=DIRECTION('center_axis',(0.,0.,1.));
#359=DIRECTION('ref_axis',(1.,0.,0.));
#360=DIRECTION('',(0.,1.,0.));
#361=DIRECTION('',(1.,-6.12323399573688E-17,0.));
#362=DIRECTION('',(0.,-1.,0.));
#363=DIRECTION('',(1.,-6.93889390390722E-17,0.));
#364=DIRECTION('',(0.,1.,0.));
#365=DIRECTION('',(1.,0.,0.));
#366=DIRECTION('',(0.,-1.,0.));
#367=DIRECTION('',(1.,6.93889390390722E-17,0.));
#368=DIRECTION('',(0.,1.,0.));
#369=DIRECTION('',(1.,6.12323399573688E-17,0.));
#370=DIRECTION('',(0.,-1.,0.));
#371=DIRECTION('',(-0.5,-0.866025403784439,0.));
#372=DIRECTION('center_axis',(0.,0.,1.));
#373=DIRECTION('ref_axis',(-0.174426968775364,-0.984670113572986,0.));
#374=DIRECTION('',(-0.5,0.866025403784439,0.));
#375=DIRECTION('center_axis',(-1.,0.,0.));
#376=DIRECTION('ref_axis',(0.,0.,1.));
#377=DIRECTION('',(0.,1.,0.));
#378=DIRECTION('',(0.,0.,-1.));
#379=DIRECTION('',(0.,0.,-1.));
#380=DIRECTION('center_axis',(-6.93889390390722E-17,-1.,0.));
#381=DIRECTION('ref_axis',(0.,0.,-1.));
#382=DIRECTION('',(-1.,6.93889390390722E-17,0.));
#383=DIRECTION('',(0.,0.,-1.));
#384=DIRECTION('center_axis',(1.,0.,0.));
#385=DIRECTION('ref_axis',(0.,0.,-1.));
#386=DIRECTION('',(0.,-1.,0.));
#387=DIRECTION('',(0.,0.,-1.));
#388=DIRECTION('center_axis',(0.,-1.,0.));
#389=DIRECTION('ref_axis',(0.,0.,-1.));
#390=DIRECTION('',(-1.,0.,0.));
#391=DIRECTION('',(0.,0.,-1.));
#392=DIRECTION('center_axis',(-1.,0.,0.));
#393=DIRECTION('ref_axis',(0.,0.,1.));
#394=DIRECTION('',(0.,1.,0.));
#395=DIRECTION('',(0.,0.,-1.));
#396=DIRECTION('center_axis',(6.93889390390722E-17,-1.,0.));
#397=DIRECTION('ref_axis',(0.,0.,-1.));
#398=DIRECTION('',(-1.,-6.93889390390722E-17,0.));
#399=DIRECTION('',(0.,0.,-1.));
#400=DIRECTION('center_axis',(1.,0.,0.));
#401=DIRECTION('ref_axis',(0.,0.,-1.));
#402=DIRECTION('',(0.,-1.,0.));
#403=DIRECTION('',(0.,0.,-1.));
#404=DIRECTION('center_axis',(6.12323399573688E-17,-1.,0.));
#405=DIRECTION('ref_axis',(0.,0.,-1.));
#406=DIRECTION('',(-1.,-6.12323399573688E-17,0.));
#407=DIRECTION('',(0.,0.,-1.));
#408=DIRECTION('center_axis',(-1.,0.,0.));
#409=DIRECTION('ref_axis',(0.,0.,1.));
#410=DIRECTION('',(0.,1.,0.));
#411=DIRECTION('',(0.,0.,-1.));
#412=DIRECTION('center_axis',(-0.866025403784439,0.5,0.));
#413=DIRECTION('ref_axis',(0.,0.,1.));
#414=DIRECTION('',(0.5,0.866025403784439,0.));
#415=DIRECTION('',(0.,0.,-1.));
#416=DIRECTION('center_axis',(0.,0.,1.));
#417=DIRECTION('ref_axis',(-0.174426968775364,-0.984670113572986,0.));
#418=DIRECTION('center_axis',(0.,0.,-1.));
#419=DIRECTION('ref_axis',(-0.174426968775364,-0.984670113572986,0.));
#420=DIRECTION('',(0.,0.,-1.));
#421=DIRECTION('center_axis',(0.866025403784439,0.5,0.));
#422=DIRECTION('ref_axis',(0.,0.,-1.));
#423=DIRECTION('',(0.5,-0.866025403784439,0.));
#424=DIRECTION('',(0.,0.,-1.));
#425=DIRECTION('center_axis',(1.,0.,0.));
#426=DIRECTION('ref_axis',(0.,0.,-1.));
#427=DIRECTION('',(0.,-1.,0.));
#428=DIRECTION('',(0.,0.,1.));
#429=DIRECTION('center_axis',(-6.12323399573688E-17,-1.,0.));
#430=DIRECTION('ref_axis',(0.,0.,-1.));
#431=DIRECTION('',(-1.,6.12323399573688E-17,0.));
#432=DIRECTION('center_axis',(0.,0.,1.));
#433=DIRECTION('ref_axis',(1.,0.,0.));
#434=CARTESIAN_POINT('',(0.,0.,0.));
#435=CARTESIAN_POINT('Origin',(-1.17961196366423E-15,2.14274892870777,-6.));
#436=CARTESIAN_POINT('',(7.5,7.0874146971417E-16,-6.));
#437=CARTESIAN_POINT('',(7.5,0.900000000000001,-6.));
#438=CARTESIAN_POINT('',(7.5,0.900000000000001,-6.));
#439=CARTESIAN_POINT('',(5.5,8.31206149628907E-16,-6.));
#440=CARTESIAN_POINT('',(7.5,7.0874146971417E-16,-6.));
#441=CARTESIAN_POINT('',(5.5,1.,-6.));
#442=CARTESIAN_POINT('',(5.5,8.31206149628907E-16,-6.));
#443=CARTESIAN_POINT('',(1.5,1.,-6.));
#444=CARTESIAN_POINT('',(5.5,1.,-6.));
#445=CARTESIAN_POINT('',(1.5,0.,-6.));
#446=CARTESIAN_POINT('',(1.5,1.,-6.));
#447=CARTESIAN_POINT('',(-1.5,0.,-6.));
#448=CARTESIAN_POINT('',(1.5,0.,-6.));
#449=CARTESIAN_POINT('',(-1.5,1.,-6.));
#450=CARTESIAN_POINT('',(-1.5,0.,-6.));
#451=CARTESIAN_POINT('',(-5.5,1.,-6.));
#452=CARTESIAN_POINT('',(-1.5,1.,-6.));
#453=CARTESIAN_POINT('',(-5.5,8.31206149628907E-16,-6.));
#454=CARTESIAN_POINT('',(-5.5,1.,-6.));
#455=CARTESIAN_POINT('',(-7.5,7.0874146971417E-16,-6.));
#456=CARTESIAN_POINT('',(-5.5,8.31206149628907E-16,-6.));
#457=CARTESIAN_POINT('',(-7.5,0.900000000000001,-6.));
#458=CARTESIAN_POINT('',(-7.5,7.0874146971417E-16,-6.));
#459=CARTESIAN_POINT('',(-5.4072360320363,4.52477352076258,-6.));
#460=CARTESIAN_POINT('',(-7.5,0.900000000000001,-6.));
#461=CARTESIAN_POINT('',(5.4072360320363,4.52477352076258,-6.));
#462=CARTESIAN_POINT('Origin',(3.68242362774818E-15,-26.,-6.));
#463=CARTESIAN_POINT('',(5.4072360320363,4.52477352076258,-6.));
#464=CARTESIAN_POINT('Origin',(5.5,8.31206149628907E-16,0.));
#465=CARTESIAN_POINT('',(5.5,8.31206149628907E-16,6.));
#466=CARTESIAN_POINT('',(5.5,1.,6.));
#467=CARTESIAN_POINT('',(5.5,8.31206149628907E-16,6.));
#468=CARTESIAN_POINT('',(5.5,1.,0.));
#469=CARTESIAN_POINT('',(5.5,8.31206149628907E-16,0.));
#470=CARTESIAN_POINT('Origin',(5.5,1.,0.));
#471=CARTESIAN_POINT('',(1.5,1.,6.));
#472=CARTESIAN_POINT('',(5.5,1.,6.));
#473=CARTESIAN_POINT('',(1.5,1.,0.));
#474=CARTESIAN_POINT('Origin',(1.5,1.,0.));
#475=CARTESIAN_POINT('',(1.5,0.,6.));
#476=CARTESIAN_POINT('',(1.5,1.,6.));
#477=CARTESIAN_POINT('',(1.5,0.,0.));
#478=CARTESIAN_POINT('Origin',(1.5,0.,0.));
#479=CARTESIAN_POINT('',(-1.5,0.,6.));
#480=CARTESIAN_POINT('',(1.5,0.,6.));
#481=CARTESIAN_POINT('',(-1.5,0.,0.));
#482=CARTESIAN_POINT('Origin',(-1.5,0.,0.));
#483=CARTESIAN_POINT('',(-1.5,1.,6.));
#484=CARTESIAN_POINT('',(-1.5,0.,6.));
#485=CARTESIAN_POINT('',(-1.5,1.,0.));
#486=CARTESIAN_POINT('Origin',(-1.5,1.,0.));
#487=CARTESIAN_POINT('',(-5.5,1.,6.));
#488=CARTESIAN_POINT('',(-1.5,1.,6.));
#489=CARTESIAN_POINT('',(-5.5,1.,0.));
#490=CARTESIAN_POINT('Origin',(-5.5,1.,0.));
#491=CARTESIAN_POINT('',(-5.5,8.31206149628907E-16,6.));
#492=CARTESIAN_POINT('',(-5.5,1.,6.));
#493=CARTESIAN_POINT('',(-5.5,8.31206149628907E-16,0.));
#494=CARTESIAN_POINT('Origin',(-5.5,8.31206149628907E-16,0.));
#495=CARTESIAN_POINT('',(-7.5,7.0874146971417E-16,6.));
#496=CARTESIAN_POINT('',(-5.5,8.31206149628907E-16,6.));
#497=CARTESIAN_POINT('',(-7.5,7.0874146971417E-16,0.));
#498=CARTESIAN_POINT('Origin',(-7.5,7.0874146971417E-16,0.));
#499=CARTESIAN_POINT('',(-7.5,0.900000000000001,6.));
#500=CARTESIAN_POINT('',(-7.5,7.0874146971417E-16,6.));
#501=CARTESIAN_POINT('',(-7.5,0.900000000000001,0.));
#502=CARTESIAN_POINT('Origin',(-7.5,0.900000000000001,0.));
#503=CARTESIAN_POINT('',(-5.4072360320363,4.52477352076258,6.));
#504=CARTESIAN_POINT('',(-7.5,0.900000000000001,6.));
#505=CARTESIAN_POINT('',(-5.4072360320363,4.52477352076258,0.));
#506=CARTESIAN_POINT('Origin',(3.68242362774818E-15,-26.,0.));
#507=CARTESIAN_POINT('',(5.4072360320363,4.52477352076258,6.));
#508=CARTESIAN_POINT('Origin',(3.68242362774818E-15,-26.,6.));
#509=CARTESIAN_POINT('',(5.4072360320363,4.52477352076258,0.));
#510=CARTESIAN_POINT('Origin',(5.4072360320363,4.52477352076258,0.));
#511=CARTESIAN_POINT('',(7.5,0.900000000000001,6.));
#512=CARTESIAN_POINT('',(5.4072360320363,4.52477352076258,6.));
#513=CARTESIAN_POINT('',(7.5,0.900000000000001,0.));
#514=CARTESIAN_POINT('Origin',(7.5,0.900000000000001,0.));
#515=CARTESIAN_POINT('',(7.5,7.0874146971417E-16,6.));
#516=CARTESIAN_POINT('',(7.5,0.900000000000001,6.));
#517=CARTESIAN_POINT('',(7.5,7.0874146971417E-16,0.));
#518=CARTESIAN_POINT('Origin',(7.5,7.0874146971417E-16,0.));
#519=CARTESIAN_POINT('',(7.5,7.0874146971417E-16,6.));
#520=CARTESIAN_POINT('Origin',(-1.196959198424E-15,2.14274892870777,6.));
#521=UNCERTAINTY_MEASURE_WITH_UNIT(LENGTH_MEASURE(0.01),#525,
'DISTANCE_ACCURACY_VALUE',
'Maximum model space distance between geometric entities at asserted c
onnectivities');
#522=UNCERTAINTY_MEASURE_WITH_UNIT(LENGTH_MEASURE(0.01),#525,
'DISTANCE_ACCURACY_VALUE',
'Maximum model space distance between geometric entities at asserted c
onnectivities');
#523=(
GEOMETRIC_REPRESENTATION_CONTEXT(3)
GLOBAL_UNCERTAINTY_ASSIGNED_CONTEXT((#521))
GLOBAL_UNIT_ASSIGNED_CONTEXT((#525,#527,#528))
REPRESENTATION_CONTEXT('','3D')
);
#524=(
GEOMETRIC_REPRESENTATION_CONTEXT(3)
GLOBAL_UNCERTAINTY_ASSIGNED_CONTEXT((#522))
GLOBAL_UNIT_ASSIGNED_CONTEXT((#525,#527,#528))
REPRESENTATION_CONTEXT('','3D')
);
#525=(
LENGTH_UNIT()
NAMED_UNIT(*)
SI_UNIT(.MILLI.,.METRE.)
);
#526=(
LENGTH_UNIT()
NAMED_UNIT(*)
SI_UNIT(.CENTI.,.METRE.)
);
#527=(
NAMED_UNIT(*)
PLANE_ANGLE_UNIT()
SI_UNIT($,.RADIAN.)
);
#528=(
NAMED_UNIT(*)
SI_UNIT($,.STERADIAN.)
SOLID_ANGLE_UNIT()
);
#529=SHAPE_DEFINITION_REPRESENTATION(#530,#531);
#530=PRODUCT_DEFINITION_SHAPE('',$,#533);
#531=SHAPE_REPRESENTATION('',(#337),#523);
#532=PRODUCT_DEFINITION_CONTEXT('part definition',#537,'design');
#533=PRODUCT_DEFINITION('WKZ-0055','E_3_01_06_07_00_WKZ-0055',#534,#532);
#534=PRODUCT_DEFINITION_FORMATION('',$,#539);
#535=PRODUCT_RELATED_PRODUCT_CATEGORY('E_3_01_06_07_00_WKZ-0055',
'E_3_01_06_07_00_WKZ-0055',(#539));
#536=APPLICATION_PROTOCOL_DEFINITION('international standard',
'automotive_design',2009,#537);
#537=APPLICATION_CONTEXT(
'Core Data for Automotive Mechanical Design Process');
#538=PRODUCT_CONTEXT('part definition',#537,'mechanical');
#539=PRODUCT('WKZ-0055','E_3_01_06_07_00_WKZ-0055',$,(#538));
#540=PRESENTATION_STYLE_ASSIGNMENT((#541));
#541=SURFACE_STYLE_USAGE(.BOTH.,#544);
#542=SURFACE_STYLE_RENDERING_WITH_PROPERTIES($,#548,(#543));
#543=SURFACE_STYLE_TRANSPARENT(0.);
#544=SURFACE_SIDE_STYLE('',(#545,#542));
#545=SURFACE_STYLE_FILL_AREA(#546);
#546=FILL_AREA_STYLE('',(#547));
#547=FILL_AREA_STYLE_COLOUR('',#548);
#548=COLOUR_RGB('',0.92156862745098,0.92156862745098,0.92156862745098);
ENDSEC;
END-ISO-10303-21;
