ISO-10303-21;
HEADER;
/* Generated by software containing ST-Developer
 * from STEP Tools, Inc. (www.steptools.com) 
 */

FILE_DESCRIPTION(
/* description */ (''),
/* implementation_level */ '2;1');

FILE_NAME(
/* name */ 
'H:\\Eigene Dateien\\CAD Workspace Vault\\CAD\\E_3_Nocken\\E_3_01_Aufs
chwei\X\DFnocke\\06_Trapez\\E_3_01_06_07_00_WKZ-0036.stp',
/* time_stamp */ '2024-06-07T13:24:34+02:00',
/* author */ ('DFischer'),
/* organization */ (''),
/* preprocessor_version */ 'ST-DEVELOPER v18.1',
/* originating_system */ 'Autodesk Inventor 2021',
/* authorisation */ '');

FILE_SCHEMA (('AUTOMOTIVE_DESIGN { 1 0 10303 214 3 1 1 }'));
ENDSEC;

DATA;
#10=MECHANICAL_DESIGN_GEOMETRIC_PRESENTATION_REPRESENTATION('',(#14,#15,
#16,#17),#522);
#11=SHAPE_REPRESENTATION_RELATIONSHIP('SRR','None',#529,#12);
#12=ADVANCED_BREP_SHAPE_REPRESENTATION('',(#13),#521);
#13=MANIFOLD_SOLID_BREP('Volumenk\X\F6rper1',#320);
#14=STYLED_ITEM('',(#539),#308);
#15=STYLED_ITEM('',(#539),#312);
#16=STYLED_ITEM('',(#539),#318);
#17=STYLED_ITEM('',(#538),#13);
#18=FACE_OUTER_BOUND('',#34,.T.);
#19=FACE_OUTER_BOUND('',#35,.T.);
#20=FACE_OUTER_BOUND('',#36,.T.);
#21=FACE_OUTER_BOUND('',#37,.T.);
#22=FACE_OUTER_BOUND('',#38,.T.);
#23=FACE_OUTER_BOUND('',#39,.T.);
#24=FACE_OUTER_BOUND('',#40,.T.);
#25=FACE_OUTER_BOUND('',#41,.T.);
#26=FACE_OUTER_BOUND('',#42,.T.);
#27=FACE_OUTER_BOUND('',#43,.T.);
#28=FACE_OUTER_BOUND('',#44,.T.);
#29=FACE_OUTER_BOUND('',#45,.T.);
#30=FACE_OUTER_BOUND('',#46,.T.);
#31=FACE_OUTER_BOUND('',#47,.T.);
#32=FACE_OUTER_BOUND('',#48,.T.);
#33=FACE_OUTER_BOUND('',#49,.T.);
#34=EDGE_LOOP('',(#204,#205,#206,#207,#208,#209,#210,#211,#212,#213,#214,
#215,#216,#217));
#35=EDGE_LOOP('',(#218,#219,#220,#221));
#36=EDGE_LOOP('',(#222,#223,#224,#225));
#37=EDGE_LOOP('',(#226,#227,#228,#229));
#38=EDGE_LOOP('',(#230,#231,#232,#233));
#39=EDGE_LOOP('',(#234,#235,#236,#237));
#40=EDGE_LOOP('',(#238,#239,#240,#241));
#41=EDGE_LOOP('',(#242,#243,#244,#245));
#42=EDGE_LOOP('',(#246,#247,#248,#249));
#43=EDGE_LOOP('',(#250,#251,#252,#253));
#44=EDGE_LOOP('',(#254,#255,#256,#257));
#45=EDGE_LOOP('',(#258,#259,#260,#261));
#46=EDGE_LOOP('',(#262,#263,#264,#265));
#47=EDGE_LOOP('',(#266,#267,#268,#269));
#48=EDGE_LOOP('',(#270,#271,#272,#273));
#49=EDGE_LOOP('',(#274,#275,#276,#277,#278,#279,#280,#281,#282,#283,#284,
#285,#286,#287));
#50=LINE('',#436,#92);
#51=LINE('',#438,#93);
#52=LINE('',#440,#94);
#53=LINE('',#442,#95);
#54=LINE('',#444,#96);
#55=LINE('',#446,#97);
#56=LINE('',#448,#98);
#57=LINE('',#450,#99);
#58=LINE('',#452,#100);
#59=LINE('',#454,#101);
#60=LINE('',#456,#102);
#61=LINE('',#458,#103);
#62=LINE('',#460,#104);
#63=LINE('',#461,#105);
#64=LINE('',#465,#106);
#65=LINE('',#466,#107);
#66=LINE('',#467,#108);
#67=LINE('',#470,#109);
#68=LINE('',#471,#110);
#69=LINE('',#474,#111);
#70=LINE('',#475,#112);
#71=LINE('',#478,#113);
#72=LINE('',#479,#114);
#73=LINE('',#482,#115);
#74=LINE('',#483,#116);
#75=LINE('',#486,#117);
#76=LINE('',#487,#118);
#77=LINE('',#490,#119);
#78=LINE('',#491,#120);
#79=LINE('',#494,#121);
#80=LINE('',#495,#122);
#81=LINE('',#498,#123);
#82=LINE('',#499,#124);
#83=LINE('',#502,#125);
#84=LINE('',#503,#126);
#85=LINE('',#506,#127);
#86=LINE('',#507,#128);
#87=LINE('',#510,#129);
#88=LINE('',#511,#130);
#89=LINE('',#514,#131);
#90=LINE('',#515,#132);
#91=LINE('',#517,#133);
#92=VECTOR('',#360,10.);
#93=VECTOR('',#361,10.);
#94=VECTOR('',#362,10.);
#95=VECTOR('',#363,10.);
#96=VECTOR('',#364,10.);
#97=VECTOR('',#365,10.);
#98=VECTOR('',#366,10.);
#99=VECTOR('',#367,10.);
#100=VECTOR('',#368,10.);
#101=VECTOR('',#369,10.);
#102=VECTOR('',#370,10.);
#103=VECTOR('',#371,10.);
#104=VECTOR('',#372,10.);
#105=VECTOR('',#373,10.);
#106=VECTOR('',#376,10.);
#107=VECTOR('',#377,10.);
#108=VECTOR('',#378,10.);
#109=VECTOR('',#381,10.);
#110=VECTOR('',#382,10.);
#111=VECTOR('',#385,10.);
#112=VECTOR('',#386,10.);
#113=VECTOR('',#389,10.);
#114=VECTOR('',#390,10.);
#115=VECTOR('',#393,10.);
#116=VECTOR('',#394,10.);
#117=VECTOR('',#397,10.);
#118=VECTOR('',#398,10.);
#119=VECTOR('',#401,10.);
#120=VECTOR('',#402,10.);
#121=VECTOR('',#405,10.);
#122=VECTOR('',#406,10.);
#123=VECTOR('',#409,10.);
#124=VECTOR('',#410,10.);
#125=VECTOR('',#413,10.);
#126=VECTOR('',#414,10.);
#127=VECTOR('',#417,10.);
#128=VECTOR('',#418,10.);
#129=VECTOR('',#421,10.);
#130=VECTOR('',#422,10.);
#131=VECTOR('',#425,10.);
#132=VECTOR('',#426,10.);
#133=VECTOR('',#429,10.);
#134=VERTEX_POINT('',#434);
#135=VERTEX_POINT('',#435);
#136=VERTEX_POINT('',#437);
#137=VERTEX_POINT('',#439);
#138=VERTEX_POINT('',#441);
#139=VERTEX_POINT('',#443);
#140=VERTEX_POINT('',#445);
#141=VERTEX_POINT('',#447);
#142=VERTEX_POINT('',#449);
#143=VERTEX_POINT('',#451);
#144=VERTEX_POINT('',#453);
#145=VERTEX_POINT('',#455);
#146=VERTEX_POINT('',#457);
#147=VERTEX_POINT('',#459);
#148=VERTEX_POINT('',#463);
#149=VERTEX_POINT('',#464);
#150=VERTEX_POINT('',#469);
#151=VERTEX_POINT('',#473);
#152=VERTEX_POINT('',#477);
#153=VERTEX_POINT('',#481);
#154=VERTEX_POINT('',#485);
#155=VERTEX_POINT('',#489);
#156=VERTEX_POINT('',#493);
#157=VERTEX_POINT('',#497);
#158=VERTEX_POINT('',#501);
#159=VERTEX_POINT('',#505);
#160=VERTEX_POINT('',#509);
#161=VERTEX_POINT('',#513);
#162=EDGE_CURVE('',#134,#135,#50,.T.);
#163=EDGE_CURVE('',#136,#134,#51,.T.);
#164=EDGE_CURVE('',#137,#136,#52,.T.);
#165=EDGE_CURVE('',#138,#137,#53,.T.);
#166=EDGE_CURVE('',#139,#138,#54,.T.);
#167=EDGE_CURVE('',#140,#139,#55,.T.);
#168=EDGE_CURVE('',#141,#140,#56,.T.);
#169=EDGE_CURVE('',#142,#141,#57,.T.);
#170=EDGE_CURVE('',#143,#142,#58,.T.);
#171=EDGE_CURVE('',#144,#143,#59,.T.);
#172=EDGE_CURVE('',#145,#144,#60,.T.);
#173=EDGE_CURVE('',#146,#145,#61,.T.);
#174=EDGE_CURVE('',#147,#146,#62,.T.);
#175=EDGE_CURVE('',#135,#147,#63,.T.);
#176=EDGE_CURVE('',#148,#149,#64,.T.);
#177=EDGE_CURVE('',#149,#137,#65,.T.);
#178=EDGE_CURVE('',#148,#136,#66,.T.);
#179=EDGE_CURVE('',#149,#150,#67,.T.);
#180=EDGE_CURVE('',#150,#138,#68,.T.);
#181=EDGE_CURVE('',#150,#151,#69,.T.);
#182=EDGE_CURVE('',#151,#139,#70,.T.);
#183=EDGE_CURVE('',#151,#152,#71,.T.);
#184=EDGE_CURVE('',#152,#140,#72,.T.);
#185=EDGE_CURVE('',#152,#153,#73,.T.);
#186=EDGE_CURVE('',#153,#141,#74,.T.);
#187=EDGE_CURVE('',#153,#154,#75,.T.);
#188=EDGE_CURVE('',#154,#142,#76,.T.);
#189=EDGE_CURVE('',#154,#155,#77,.T.);
#190=EDGE_CURVE('',#155,#143,#78,.T.);
#191=EDGE_CURVE('',#155,#156,#79,.T.);
#192=EDGE_CURVE('',#156,#144,#80,.T.);
#193=EDGE_CURVE('',#156,#157,#81,.T.);
#194=EDGE_CURVE('',#157,#145,#82,.T.);
#195=EDGE_CURVE('',#157,#158,#83,.T.);
#196=EDGE_CURVE('',#158,#146,#84,.T.);
#197=EDGE_CURVE('',#158,#159,#85,.T.);
#198=EDGE_CURVE('',#159,#147,#86,.T.);
#199=EDGE_CURVE('',#159,#160,#87,.T.);
#200=EDGE_CURVE('',#160,#135,#88,.T.);
#201=EDGE_CURVE('',#160,#161,#89,.T.);
#202=EDGE_CURVE('',#134,#161,#90,.T.);
#203=EDGE_CURVE('',#161,#148,#91,.T.);
#204=ORIENTED_EDGE('',*,*,#162,.F.);
#205=ORIENTED_EDGE('',*,*,#163,.F.);
#206=ORIENTED_EDGE('',*,*,#164,.F.);
#207=ORIENTED_EDGE('',*,*,#165,.F.);
#208=ORIENTED_EDGE('',*,*,#166,.F.);
#209=ORIENTED_EDGE('',*,*,#167,.F.);
#210=ORIENTED_EDGE('',*,*,#168,.F.);
#211=ORIENTED_EDGE('',*,*,#169,.F.);
#212=ORIENTED_EDGE('',*,*,#170,.F.);
#213=ORIENTED_EDGE('',*,*,#171,.F.);
#214=ORIENTED_EDGE('',*,*,#172,.F.);
#215=ORIENTED_EDGE('',*,*,#173,.F.);
#216=ORIENTED_EDGE('',*,*,#174,.F.);
#217=ORIENTED_EDGE('',*,*,#175,.F.);
#218=ORIENTED_EDGE('',*,*,#176,.T.);
#219=ORIENTED_EDGE('',*,*,#177,.T.);
#220=ORIENTED_EDGE('',*,*,#164,.T.);
#221=ORIENTED_EDGE('',*,*,#178,.F.);
#222=ORIENTED_EDGE('',*,*,#179,.T.);
#223=ORIENTED_EDGE('',*,*,#180,.T.);
#224=ORIENTED_EDGE('',*,*,#165,.T.);
#225=ORIENTED_EDGE('',*,*,#177,.F.);
#226=ORIENTED_EDGE('',*,*,#181,.T.);
#227=ORIENTED_EDGE('',*,*,#182,.T.);
#228=ORIENTED_EDGE('',*,*,#166,.T.);
#229=ORIENTED_EDGE('',*,*,#180,.F.);
#230=ORIENTED_EDGE('',*,*,#183,.T.);
#231=ORIENTED_EDGE('',*,*,#184,.T.);
#232=ORIENTED_EDGE('',*,*,#167,.T.);
#233=ORIENTED_EDGE('',*,*,#182,.F.);
#234=ORIENTED_EDGE('',*,*,#185,.T.);
#235=ORIENTED_EDGE('',*,*,#186,.T.);
#236=ORIENTED_EDGE('',*,*,#168,.T.);
#237=ORIENTED_EDGE('',*,*,#184,.F.);
#238=ORIENTED_EDGE('',*,*,#187,.T.);
#239=ORIENTED_EDGE('',*,*,#188,.T.);
#240=ORIENTED_EDGE('',*,*,#169,.T.);
#241=ORIENTED_EDGE('',*,*,#186,.F.);
#242=ORIENTED_EDGE('',*,*,#189,.T.);
#243=ORIENTED_EDGE('',*,*,#190,.T.);
#244=ORIENTED_EDGE('',*,*,#170,.T.);
#245=ORIENTED_EDGE('',*,*,#188,.F.);
#246=ORIENTED_EDGE('',*,*,#191,.T.);
#247=ORIENTED_EDGE('',*,*,#192,.T.);
#248=ORIENTED_EDGE('',*,*,#171,.T.);
#249=ORIENTED_EDGE('',*,*,#190,.F.);
#250=ORIENTED_EDGE('',*,*,#193,.T.);
#251=ORIENTED_EDGE('',*,*,#194,.T.);
#252=ORIENTED_EDGE('',*,*,#172,.T.);
#253=ORIENTED_EDGE('',*,*,#192,.F.);
#254=ORIENTED_EDGE('',*,*,#195,.T.);
#255=ORIENTED_EDGE('',*,*,#196,.T.);
#256=ORIENTED_EDGE('',*,*,#173,.T.);
#257=ORIENTED_EDGE('',*,*,#194,.F.);
#258=ORIENTED_EDGE('',*,*,#197,.T.);
#259=ORIENTED_EDGE('',*,*,#198,.T.);
#260=ORIENTED_EDGE('',*,*,#174,.T.);
#261=ORIENTED_EDGE('',*,*,#196,.F.);
#262=ORIENTED_EDGE('',*,*,#199,.T.);
#263=ORIENTED_EDGE('',*,*,#200,.T.);
#264=ORIENTED_EDGE('',*,*,#175,.T.);
#265=ORIENTED_EDGE('',*,*,#198,.F.);
#266=ORIENTED_EDGE('',*,*,#201,.T.);
#267=ORIENTED_EDGE('',*,*,#202,.F.);
#268=ORIENTED_EDGE('',*,*,#162,.T.);
#269=ORIENTED_EDGE('',*,*,#200,.F.);
#270=ORIENTED_EDGE('',*,*,#203,.T.);
#271=ORIENTED_EDGE('',*,*,#178,.T.);
#272=ORIENTED_EDGE('',*,*,#163,.T.);
#273=ORIENTED_EDGE('',*,*,#202,.T.);
#274=ORIENTED_EDGE('',*,*,#176,.F.);
#275=ORIENTED_EDGE('',*,*,#203,.F.);
#276=ORIENTED_EDGE('',*,*,#201,.F.);
#277=ORIENTED_EDGE('',*,*,#199,.F.);
#278=ORIENTED_EDGE('',*,*,#197,.F.);
#279=ORIENTED_EDGE('',*,*,#195,.F.);
#280=ORIENTED_EDGE('',*,*,#193,.F.);
#281=ORIENTED_EDGE('',*,*,#191,.F.);
#282=ORIENTED_EDGE('',*,*,#189,.F.);
#283=ORIENTED_EDGE('',*,*,#187,.F.);
#284=ORIENTED_EDGE('',*,*,#185,.F.);
#285=ORIENTED_EDGE('',*,*,#183,.F.);
#286=ORIENTED_EDGE('',*,*,#181,.F.);
#287=ORIENTED_EDGE('',*,*,#179,.F.);
#288=PLANE('',#340);
#289=PLANE('',#341);
#290=PLANE('',#342);
#291=PLANE('',#343);
#292=PLANE('',#344);
#293=PLANE('',#345);
#294=PLANE('',#346);
#295=PLANE('',#347);
#296=PLANE('',#348);
#297=PLANE('',#349);
#298=PLANE('',#350);
#299=PLANE('',#351);
#300=PLANE('',#352);
#301=PLANE('',#353);
#302=PLANE('',#354);
#303=PLANE('',#355);
#304=ADVANCED_FACE('',(#18),#288,.F.);
#305=ADVANCED_FACE('',(#19),#289,.T.);
#306=ADVANCED_FACE('',(#20),#290,.T.);
#307=ADVANCED_FACE('',(#21),#291,.T.);
#308=ADVANCED_FACE('',(#22),#292,.T.);
#309=ADVANCED_FACE('',(#23),#293,.T.);
#310=ADVANCED_FACE('',(#24),#294,.T.);
#311=ADVANCED_FACE('',(#25),#295,.T.);
#312=ADVANCED_FACE('',(#26),#296,.T.);
#313=ADVANCED_FACE('',(#27),#297,.T.);
#314=ADVANCED_FACE('',(#28),#298,.T.);
#315=ADVANCED_FACE('',(#29),#299,.T.);
#316=ADVANCED_FACE('',(#30),#300,.T.);
#317=ADVANCED_FACE('',(#31),#301,.T.);
#318=ADVANCED_FACE('',(#32),#302,.T.);
#319=ADVANCED_FACE('',(#33),#303,.T.);
#320=CLOSED_SHELL('',(#304,#305,#306,#307,#308,#309,#310,#311,#312,#313,
#314,#315,#316,#317,#318,#319));
#321=DERIVED_UNIT_ELEMENT(#323,1.);
#322=DERIVED_UNIT_ELEMENT(#524,3.);
#323=(
MASS_UNIT()
NAMED_UNIT(*)
SI_UNIT($,.GRAM.)
);
#324=DERIVED_UNIT((#321,#322));
#325=MEASURE_REPRESENTATION_ITEM('density measure',
POSITIVE_RATIO_MEASURE(8.03),#324);
#326=PROPERTY_DEFINITION_REPRESENTATION(#331,#328);
#327=PROPERTY_DEFINITION_REPRESENTATION(#332,#329);
#328=REPRESENTATION('material name',(#330),#521);
#329=REPRESENTATION('density',(#325),#521);
#330=DESCRIPTIVE_REPRESENTATION_ITEM('1.4301','1.4301');
#331=PROPERTY_DEFINITION('material property','material name',#531);
#332=PROPERTY_DEFINITION('material property','density of part',#531);
#333=DATE_TIME_ROLE('creation_date');
#334=APPLIED_DATE_AND_TIME_ASSIGNMENT(#335,#333,(#531));
#335=DATE_AND_TIME(#336,#337);
#336=CALENDAR_DATE(2011,19,10);
#337=LOCAL_TIME(0,0,0.,#338);
#338=COORDINATED_UNIVERSAL_TIME_OFFSET(0,0,.BEHIND.);
#339=AXIS2_PLACEMENT_3D('placement',#432,#356,#357);
#340=AXIS2_PLACEMENT_3D('',#433,#358,#359);
#341=AXIS2_PLACEMENT_3D('',#462,#374,#375);
#342=AXIS2_PLACEMENT_3D('',#468,#379,#380);
#343=AXIS2_PLACEMENT_3D('',#472,#383,#384);
#344=AXIS2_PLACEMENT_3D('',#476,#387,#388);
#345=AXIS2_PLACEMENT_3D('',#480,#391,#392);
#346=AXIS2_PLACEMENT_3D('',#484,#395,#396);
#347=AXIS2_PLACEMENT_3D('',#488,#399,#400);
#348=AXIS2_PLACEMENT_3D('',#492,#403,#404);
#349=AXIS2_PLACEMENT_3D('',#496,#407,#408);
#350=AXIS2_PLACEMENT_3D('',#500,#411,#412);
#351=AXIS2_PLACEMENT_3D('',#504,#415,#416);
#352=AXIS2_PLACEMENT_3D('',#508,#419,#420);
#353=AXIS2_PLACEMENT_3D('',#512,#423,#424);
#354=AXIS2_PLACEMENT_3D('',#516,#427,#428);
#355=AXIS2_PLACEMENT_3D('',#518,#430,#431);
#356=DIRECTION('axis',(0.,0.,1.));
#357=DIRECTION('refdir',(1.,0.,0.));
#358=DIRECTION('center_axis',(0.,0.,1.));
#359=DIRECTION('ref_axis',(1.,0.,0.));
#360=DIRECTION('',(0.,1.,0.));
#361=DIRECTION('',(1.,-6.93889390390723E-17,0.));
#362=DIRECTION('',(0.,-1.,0.));
#363=DIRECTION('',(1.,1.09564014614029E-31,0.));
#364=DIRECTION('',(5.55111512312579E-16,1.,0.));
#365=DIRECTION('',(1.,0.,0.));
#366=DIRECTION('',(5.55111512312579E-16,-1.,0.));
#367=DIRECTION('',(1.,-1.09564014614029E-31,0.));
#368=DIRECTION('',(0.,1.,0.));
#369=DIRECTION('',(1.,6.93889390390723E-17,0.));
#370=DIRECTION('',(0.,-1.,0.));
#371=DIRECTION('',(-0.499999999999999,-0.866025403784439,0.));
#372=DIRECTION('',(-1.,0.,0.));
#373=DIRECTION('',(-0.499999999999999,0.866025403784439,0.));
#374=DIRECTION('center_axis',(-1.,0.,0.));
#375=DIRECTION('ref_axis',(0.,0.,1.));
#376=DIRECTION('',(0.,1.,0.));
#377=DIRECTION('',(0.,0.,-1.));
#378=DIRECTION('',(0.,0.,-1.));
#379=DIRECTION('center_axis',(1.09564014614029E-31,-1.,0.));
#380=DIRECTION('ref_axis',(0.,0.,-1.));
#381=DIRECTION('',(-1.,-1.09564014614029E-31,0.));
#382=DIRECTION('',(0.,0.,-1.));
#383=DIRECTION('center_axis',(1.,-5.55111512312579E-16,0.));
#384=DIRECTION('ref_axis',(0.,0.,-1.));
#385=DIRECTION('',(-5.55111512312579E-16,-1.,0.));
#386=DIRECTION('',(0.,0.,-1.));
#387=DIRECTION('center_axis',(0.,-1.,0.));
#388=DIRECTION('ref_axis',(0.,0.,-1.));
#389=DIRECTION('',(-1.,0.,0.));
#390=DIRECTION('',(0.,0.,-1.));
#391=DIRECTION('center_axis',(-1.,-5.55111512312579E-16,0.));
#392=DIRECTION('ref_axis',(0.,0.,1.));
#393=DIRECTION('',(-5.55111512312579E-16,1.,0.));
#394=DIRECTION('',(0.,0.,-1.));
#395=DIRECTION('center_axis',(-1.09564014614029E-31,-1.,0.));
#396=DIRECTION('ref_axis',(0.,0.,-1.));
#397=DIRECTION('',(-1.,1.09564014614029E-31,0.));
#398=DIRECTION('',(0.,0.,-1.));
#399=DIRECTION('center_axis',(1.,0.,0.));
#400=DIRECTION('ref_axis',(0.,0.,-1.));
#401=DIRECTION('',(0.,-1.,0.));
#402=DIRECTION('',(0.,0.,-1.));
#403=DIRECTION('center_axis',(6.93889390390723E-17,-1.,0.));
#404=DIRECTION('ref_axis',(0.,0.,-1.));
#405=DIRECTION('',(-1.,-6.93889390390723E-17,0.));
#406=DIRECTION('',(0.,0.,-1.));
#407=DIRECTION('center_axis',(-1.,0.,0.));
#408=DIRECTION('ref_axis',(0.,0.,1.));
#409=DIRECTION('',(0.,1.,0.));
#410=DIRECTION('',(0.,0.,-1.));
#411=DIRECTION('center_axis',(-0.866025403784439,0.499999999999999,0.));
#412=DIRECTION('ref_axis',(0.,0.,1.));
#413=DIRECTION('',(0.499999999999999,0.866025403784439,0.));
#414=DIRECTION('',(0.,0.,-1.));
#415=DIRECTION('center_axis',(0.,1.,0.));
#416=DIRECTION('ref_axis',(0.,0.,1.));
#417=DIRECTION('',(1.,0.,0.));
#418=DIRECTION('',(0.,0.,-1.));
#419=DIRECTION('center_axis',(0.866025403784439,0.499999999999999,0.));
#420=DIRECTION('ref_axis',(0.,0.,-1.));
#421=DIRECTION('',(0.499999999999999,-0.866025403784439,0.));
#422=DIRECTION('',(0.,0.,-1.));
#423=DIRECTION('center_axis',(1.,0.,0.));
#424=DIRECTION('ref_axis',(0.,0.,-1.));
#425=DIRECTION('',(0.,-1.,0.));
#426=DIRECTION('',(0.,0.,1.));
#427=DIRECTION('center_axis',(-6.93889390390723E-17,-1.,0.));
#428=DIRECTION('ref_axis',(0.,0.,-1.));
#429=DIRECTION('',(-1.,6.93889390390723E-17,0.));
#430=DIRECTION('center_axis',(0.,0.,1.));
#431=DIRECTION('ref_axis',(1.,0.,0.));
#432=CARTESIAN_POINT('',(0.,0.,0.));
#433=CARTESIAN_POINT('Origin',(0.,2.69071025444519,-50.));
#434=CARTESIAN_POINT('',(9.,-1.,-50.));
#435=CARTESIAN_POINT('',(9.,4.,-50.));
#436=CARTESIAN_POINT('',(9.,4.,-50.));
#437=CARTESIAN_POINT('',(7.,-1.,-50.));
#438=CARTESIAN_POINT('',(9.,-1.,-50.));
#439=CARTESIAN_POINT('',(7.,4.93038065763132E-31,-50.));
#440=CARTESIAN_POINT('',(7.,-1.,-50.));
#441=CARTESIAN_POINT('',(2.5,0.,-50.));
#442=CARTESIAN_POINT('',(7.,4.93038065763132E-31,-50.));
#443=CARTESIAN_POINT('',(2.5,-0.999999999999999,-50.));
#444=CARTESIAN_POINT('',(2.5,0.,-50.));
#445=CARTESIAN_POINT('',(-2.5,-0.999999999999999,-50.));
#446=CARTESIAN_POINT('',(2.5,-0.999999999999999,-50.));
#447=CARTESIAN_POINT('',(-2.5,0.,-50.));
#448=CARTESIAN_POINT('',(-2.5,-0.999999999999999,-50.));
#449=CARTESIAN_POINT('',(-7.,4.93038065763132E-31,-50.));
#450=CARTESIAN_POINT('',(-2.5,0.,-50.));
#451=CARTESIAN_POINT('',(-7.,-1.,-50.));
#452=CARTESIAN_POINT('',(-7.,4.93038065763132E-31,-50.));
#453=CARTESIAN_POINT('',(-9.,-1.,-50.));
#454=CARTESIAN_POINT('',(-7.,-1.,-50.));
#455=CARTESIAN_POINT('',(-9.,4.,-50.));
#456=CARTESIAN_POINT('',(-9.,-1.,-50.));
#457=CARTESIAN_POINT('',(-7.26794919243113,7.,-50.));
#458=CARTESIAN_POINT('',(-9.,4.,-50.));
#459=CARTESIAN_POINT('',(7.26794919243113,7.,-50.));
#460=CARTESIAN_POINT('',(-7.26794919243113,7.,-50.));
#461=CARTESIAN_POINT('',(7.26794919243113,7.,-50.));
#462=CARTESIAN_POINT('Origin',(7.,-1.,0.));
#463=CARTESIAN_POINT('',(7.,-1.,50.));
#464=CARTESIAN_POINT('',(7.,4.93038065763132E-31,50.));
#465=CARTESIAN_POINT('',(7.,-1.,50.));
#466=CARTESIAN_POINT('',(7.,4.93038065763132E-31,0.));
#467=CARTESIAN_POINT('',(7.,-1.,0.));
#468=CARTESIAN_POINT('Origin',(7.,4.93038065763132E-31,0.));
#469=CARTESIAN_POINT('',(2.5,0.,50.));
#470=CARTESIAN_POINT('',(7.,4.93038065763132E-31,50.));
#471=CARTESIAN_POINT('',(2.5,0.,0.));
#472=CARTESIAN_POINT('Origin',(2.5,0.,0.));
#473=CARTESIAN_POINT('',(2.5,-0.999999999999999,50.));
#474=CARTESIAN_POINT('',(2.5,0.,50.));
#475=CARTESIAN_POINT('',(2.5,-0.999999999999999,0.));
#476=CARTESIAN_POINT('Origin',(2.5,-0.999999999999999,0.));
#477=CARTESIAN_POINT('',(-2.5,-0.999999999999999,50.));
#478=CARTESIAN_POINT('',(2.5,-0.999999999999999,50.));
#479=CARTESIAN_POINT('',(-2.5,-0.999999999999999,0.));
#480=CARTESIAN_POINT('Origin',(-2.5,-0.999999999999999,0.));
#481=CARTESIAN_POINT('',(-2.5,0.,50.));
#482=CARTESIAN_POINT('',(-2.5,-0.999999999999999,50.));
#483=CARTESIAN_POINT('',(-2.5,0.,0.));
#484=CARTESIAN_POINT('Origin',(-2.5,0.,0.));
#485=CARTESIAN_POINT('',(-7.,4.93038065763132E-31,50.));
#486=CARTESIAN_POINT('',(-2.5,0.,50.));
#487=CARTESIAN_POINT('',(-7.,4.93038065763132E-31,0.));
#488=CARTESIAN_POINT('Origin',(-7.,4.93038065763132E-31,0.));
#489=CARTESIAN_POINT('',(-7.,-1.,50.));
#490=CARTESIAN_POINT('',(-7.,4.93038065763132E-31,50.));
#491=CARTESIAN_POINT('',(-7.,-1.,0.));
#492=CARTESIAN_POINT('Origin',(-7.,-1.,0.));
#493=CARTESIAN_POINT('',(-9.,-1.,50.));
#494=CARTESIAN_POINT('',(-7.,-1.,50.));
#495=CARTESIAN_POINT('',(-9.,-1.,0.));
#496=CARTESIAN_POINT('Origin',(-9.,-1.,0.));
#497=CARTESIAN_POINT('',(-9.,4.,50.));
#498=CARTESIAN_POINT('',(-9.,-1.,50.));
#499=CARTESIAN_POINT('',(-9.,4.,0.));
#500=CARTESIAN_POINT('Origin',(-9.,4.,0.));
#501=CARTESIAN_POINT('',(-7.26794919243113,7.,50.));
#502=CARTESIAN_POINT('',(-9.,4.,50.));
#503=CARTESIAN_POINT('',(-7.26794919243113,7.,0.));
#504=CARTESIAN_POINT('Origin',(-7.26794919243113,7.,0.));
#505=CARTESIAN_POINT('',(7.26794919243113,7.,50.));
#506=CARTESIAN_POINT('',(-7.26794919243113,7.,50.));
#507=CARTESIAN_POINT('',(7.26794919243113,7.,0.));
#508=CARTESIAN_POINT('Origin',(7.26794919243113,7.,0.));
#509=CARTESIAN_POINT('',(9.,4.,50.));
#510=CARTESIAN_POINT('',(7.26794919243113,7.,50.));
#511=CARTESIAN_POINT('',(9.,4.,0.));
#512=CARTESIAN_POINT('Origin',(9.,4.,0.));
#513=CARTESIAN_POINT('',(9.,-1.,50.));
#514=CARTESIAN_POINT('',(9.,4.,50.));
#515=CARTESIAN_POINT('',(9.,-1.,0.));
#516=CARTESIAN_POINT('Origin',(9.,-1.,0.));
#517=CARTESIAN_POINT('',(9.,-1.,50.));
#518=CARTESIAN_POINT('Origin',(-1.73472347597681E-17,2.6907102544452,50.));
#519=UNCERTAINTY_MEASURE_WITH_UNIT(LENGTH_MEASURE(0.01),#523,
'DISTANCE_ACCURACY_VALUE',
'Maximum model space distance between geometric entities at asserted c
onnectivities');
#520=UNCERTAINTY_MEASURE_WITH_UNIT(LENGTH_MEASURE(0.01),#523,
'DISTANCE_ACCURACY_VALUE',
'Maximum model space distance between geometric entities at asserted c
onnectivities');
#521=(
GEOMETRIC_REPRESENTATION_CONTEXT(3)
GLOBAL_UNCERTAINTY_ASSIGNED_CONTEXT((#519))
GLOBAL_UNIT_ASSIGNED_CONTEXT((#523,#525,#526))
REPRESENTATION_CONTEXT('','3D')
);
#522=(
GEOMETRIC_REPRESENTATION_CONTEXT(3)
GLOBAL_UNCERTAINTY_ASSIGNED_CONTEXT((#520))
GLOBAL_UNIT_ASSIGNED_CONTEXT((#523,#525,#526))
REPRESENTATION_CONTEXT('','3D')
);
#523=(
LENGTH_UNIT()
NAMED_UNIT(*)
SI_UNIT(.MILLI.,.METRE.)
);
#524=(
LENGTH_UNIT()
NAMED_UNIT(*)
SI_UNIT(.CENTI.,.METRE.)
);
#525=(
NAMED_UNIT(*)
PLANE_ANGLE_UNIT()
SI_UNIT($,.RADIAN.)
);
#526=(
NAMED_UNIT(*)
SI_UNIT($,.STERADIAN.)
SOLID_ANGLE_UNIT()
);
#527=SHAPE_DEFINITION_REPRESENTATION(#528,#529);
#528=PRODUCT_DEFINITION_SHAPE('',$,#531);
#529=SHAPE_REPRESENTATION('',(#339),#521);
#530=PRODUCT_DEFINITION_CONTEXT('part definition',#535,'design');
#531=PRODUCT_DEFINITION('WKZ-0036','E_3_01_06_07_00_WKZ-0036',#532,#530);
#532=PRODUCT_DEFINITION_FORMATION('',$,#537);
#533=PRODUCT_RELATED_PRODUCT_CATEGORY('E_3_01_06_07_00_WKZ-0036',
'E_3_01_06_07_00_WKZ-0036',(#537));
#534=APPLICATION_PROTOCOL_DEFINITION('international standard',
'automotive_design',2009,#535);
#535=APPLICATION_CONTEXT(
'Core Data for Automotive Mechanical Design Process');
#536=PRODUCT_CONTEXT('part definition',#535,'mechanical');
#537=PRODUCT('WKZ-0036','E_3_01_06_07_00_WKZ-0036',$,(#536));
#538=PRESENTATION_STYLE_ASSIGNMENT((#540));
#539=PRESENTATION_STYLE_ASSIGNMENT((#541));
#540=SURFACE_STYLE_USAGE(.BOTH.,#544);
#541=SURFACE_STYLE_USAGE(.BOTH.,#545);
#542=SURFACE_STYLE_RENDERING_WITH_PROPERTIES($,#552,(#543));
#543=SURFACE_STYLE_TRANSPARENT(0.);
#544=SURFACE_SIDE_STYLE('',(#546,#542));
#545=SURFACE_SIDE_STYLE('',(#547));
#546=SURFACE_STYLE_FILL_AREA(#548);
#547=SURFACE_STYLE_FILL_AREA(#549);
#548=FILL_AREA_STYLE('',(#550));
#549=FILL_AREA_STYLE('',(#551));
#550=FILL_AREA_STYLE_COLOUR('',#552);
#551=FILL_AREA_STYLE_COLOUR('',#553);
#552=COLOUR_RGB('',0.92156862745098,0.92156862745098,0.92156862745098);
#553=COLOUR_RGB('',0.16078431372549,0.16078431372549,0.16078431372549);
ENDSEC;
END-ISO-10303-21;
