ISO-10303-21;
HEADER;
/* Generated by software containing ST-Developer
 * from STEP Tools, Inc. (www.steptools.com) 
 */

FILE_DESCRIPTION(
/* description */ (''),
/* implementation_level */ '2;1');

FILE_NAME(
/* name */ 'E_3_01_06_06_00_WKZ-0193.stp',
/* time_stamp */ '2025-11-24T13:00:18+01:00',
/* author */ ('d.fischer'),
/* organization */ (''),
/* preprocessor_version */ 'ST-DEVELOPER v20',
/* originating_system */ 'Autodesk Inventor 2025',
/* authorisation */ '');

FILE_SCHEMA (('AUTOMOTIVE_DESIGN { 1 0 10303 214 3 1 1 }'));
ENDSEC;

DATA;
#10=MECHANICAL_DESIGN_GEOMETRIC_PRESENTATION_REPRESENTATION('',(#14,#15,
#16),#326);
#11=SHAPE_REPRESENTATION_RELATIONSHIP('SRR','None',#333,#12);
#12=ADVANCED_BREP_SHAPE_REPRESENTATION('',(#13),#325);
#13=MANIFOLD_SOLID_BREP('Volumenk\X\F6rper1',#193);
#14=STYLED_ITEM('',(#343),#187);
#15=STYLED_ITEM('',(#342),#191);
#16=STYLED_ITEM('',(#342),#13);
#17=FACE_OUTER_BOUND('',#27,.T.);
#18=FACE_OUTER_BOUND('',#28,.T.);
#19=FACE_OUTER_BOUND('',#29,.T.);
#20=FACE_OUTER_BOUND('',#30,.T.);
#21=FACE_OUTER_BOUND('',#31,.T.);
#22=FACE_OUTER_BOUND('',#32,.T.);
#23=FACE_OUTER_BOUND('',#33,.T.);
#24=FACE_OUTER_BOUND('',#34,.T.);
#25=FACE_OUTER_BOUND('',#35,.T.);
#26=FACE_OUTER_BOUND('',#36,.T.);
#27=EDGE_LOOP('',(#125,#126,#127,#128,#129,#130,#131,#132));
#28=EDGE_LOOP('',(#133,#134,#135,#136));
#29=EDGE_LOOP('',(#137,#138,#139,#140));
#30=EDGE_LOOP('',(#141,#142,#143,#144));
#31=EDGE_LOOP('',(#145,#146,#147,#148));
#32=EDGE_LOOP('',(#149,#150,#151,#152));
#33=EDGE_LOOP('',(#153,#154,#155,#156));
#34=EDGE_LOOP('',(#157,#158,#159,#160));
#35=EDGE_LOOP('',(#161,#162,#163,#164));
#36=EDGE_LOOP('',(#165,#166,#167,#168,#169,#170,#171,#172));
#37=LINE('',#276,#61);
#38=LINE('',#278,#62);
#39=LINE('',#280,#63);
#40=LINE('',#282,#64);
#41=LINE('',#284,#65);
#42=LINE('',#286,#66);
#43=LINE('',#288,#67);
#44=LINE('',#289,#68);
#45=LINE('',#293,#69);
#46=LINE('',#294,#70);
#47=LINE('',#295,#71);
#48=LINE('',#298,#72);
#49=LINE('',#299,#73);
#50=LINE('',#302,#74);
#51=LINE('',#303,#75);
#52=LINE('',#306,#76);
#53=LINE('',#307,#77);
#54=LINE('',#310,#78);
#55=LINE('',#311,#79);
#56=LINE('',#314,#80);
#57=LINE('',#315,#81);
#58=LINE('',#318,#82);
#59=LINE('',#319,#83);
#60=LINE('',#321,#84);
#61=VECTOR('',#230,10.);
#62=VECTOR('',#231,10.);
#63=VECTOR('',#232,10.);
#64=VECTOR('',#233,10.);
#65=VECTOR('',#234,10.);
#66=VECTOR('',#235,10.);
#67=VECTOR('',#236,10.);
#68=VECTOR('',#237,10.);
#69=VECTOR('',#240,10.);
#70=VECTOR('',#241,10.);
#71=VECTOR('',#242,10.);
#72=VECTOR('',#245,10.);
#73=VECTOR('',#246,10.);
#74=VECTOR('',#249,10.);
#75=VECTOR('',#250,10.);
#76=VECTOR('',#253,10.);
#77=VECTOR('',#254,10.);
#78=VECTOR('',#257,10.);
#79=VECTOR('',#258,10.);
#80=VECTOR('',#261,10.);
#81=VECTOR('',#262,10.);
#82=VECTOR('',#265,10.);
#83=VECTOR('',#266,10.);
#84=VECTOR('',#269,10.);
#85=VERTEX_POINT('',#274);
#86=VERTEX_POINT('',#275);
#87=VERTEX_POINT('',#277);
#88=VERTEX_POINT('',#279);
#89=VERTEX_POINT('',#281);
#90=VERTEX_POINT('',#283);
#91=VERTEX_POINT('',#285);
#92=VERTEX_POINT('',#287);
#93=VERTEX_POINT('',#291);
#94=VERTEX_POINT('',#292);
#95=VERTEX_POINT('',#297);
#96=VERTEX_POINT('',#301);
#97=VERTEX_POINT('',#305);
#98=VERTEX_POINT('',#309);
#99=VERTEX_POINT('',#313);
#100=VERTEX_POINT('',#317);
#101=EDGE_CURVE('',#85,#86,#37,.T.);
#102=EDGE_CURVE('',#87,#85,#38,.T.);
#103=EDGE_CURVE('',#88,#87,#39,.T.);
#104=EDGE_CURVE('',#89,#88,#40,.T.);
#105=EDGE_CURVE('',#90,#89,#41,.T.);
#106=EDGE_CURVE('',#91,#90,#42,.T.);
#107=EDGE_CURVE('',#92,#91,#43,.T.);
#108=EDGE_CURVE('',#86,#92,#44,.T.);
#109=EDGE_CURVE('',#93,#94,#45,.T.);
#110=EDGE_CURVE('',#94,#88,#46,.T.);
#111=EDGE_CURVE('',#93,#87,#47,.T.);
#112=EDGE_CURVE('',#94,#95,#48,.T.);
#113=EDGE_CURVE('',#95,#89,#49,.T.);
#114=EDGE_CURVE('',#95,#96,#50,.T.);
#115=EDGE_CURVE('',#96,#90,#51,.T.);
#116=EDGE_CURVE('',#96,#97,#52,.T.);
#117=EDGE_CURVE('',#97,#91,#53,.T.);
#118=EDGE_CURVE('',#97,#98,#54,.T.);
#119=EDGE_CURVE('',#98,#92,#55,.T.);
#120=EDGE_CURVE('',#98,#99,#56,.T.);
#121=EDGE_CURVE('',#99,#86,#57,.T.);
#122=EDGE_CURVE('',#99,#100,#58,.T.);
#123=EDGE_CURVE('',#85,#100,#59,.T.);
#124=EDGE_CURVE('',#100,#93,#60,.T.);
#125=ORIENTED_EDGE('',*,*,#101,.F.);
#126=ORIENTED_EDGE('',*,*,#102,.F.);
#127=ORIENTED_EDGE('',*,*,#103,.F.);
#128=ORIENTED_EDGE('',*,*,#104,.F.);
#129=ORIENTED_EDGE('',*,*,#105,.F.);
#130=ORIENTED_EDGE('',*,*,#106,.F.);
#131=ORIENTED_EDGE('',*,*,#107,.F.);
#132=ORIENTED_EDGE('',*,*,#108,.F.);
#133=ORIENTED_EDGE('',*,*,#109,.T.);
#134=ORIENTED_EDGE('',*,*,#110,.T.);
#135=ORIENTED_EDGE('',*,*,#103,.T.);
#136=ORIENTED_EDGE('',*,*,#111,.F.);
#137=ORIENTED_EDGE('',*,*,#112,.T.);
#138=ORIENTED_EDGE('',*,*,#113,.T.);
#139=ORIENTED_EDGE('',*,*,#104,.T.);
#140=ORIENTED_EDGE('',*,*,#110,.F.);
#141=ORIENTED_EDGE('',*,*,#114,.T.);
#142=ORIENTED_EDGE('',*,*,#115,.T.);
#143=ORIENTED_EDGE('',*,*,#105,.T.);
#144=ORIENTED_EDGE('',*,*,#113,.F.);
#145=ORIENTED_EDGE('',*,*,#116,.T.);
#146=ORIENTED_EDGE('',*,*,#117,.T.);
#147=ORIENTED_EDGE('',*,*,#106,.T.);
#148=ORIENTED_EDGE('',*,*,#115,.F.);
#149=ORIENTED_EDGE('',*,*,#118,.T.);
#150=ORIENTED_EDGE('',*,*,#119,.T.);
#151=ORIENTED_EDGE('',*,*,#107,.T.);
#152=ORIENTED_EDGE('',*,*,#117,.F.);
#153=ORIENTED_EDGE('',*,*,#120,.T.);
#154=ORIENTED_EDGE('',*,*,#121,.T.);
#155=ORIENTED_EDGE('',*,*,#108,.T.);
#156=ORIENTED_EDGE('',*,*,#119,.F.);
#157=ORIENTED_EDGE('',*,*,#122,.T.);
#158=ORIENTED_EDGE('',*,*,#123,.F.);
#159=ORIENTED_EDGE('',*,*,#101,.T.);
#160=ORIENTED_EDGE('',*,*,#121,.F.);
#161=ORIENTED_EDGE('',*,*,#124,.T.);
#162=ORIENTED_EDGE('',*,*,#111,.T.);
#163=ORIENTED_EDGE('',*,*,#102,.T.);
#164=ORIENTED_EDGE('',*,*,#123,.T.);
#165=ORIENTED_EDGE('',*,*,#109,.F.);
#166=ORIENTED_EDGE('',*,*,#124,.F.);
#167=ORIENTED_EDGE('',*,*,#122,.F.);
#168=ORIENTED_EDGE('',*,*,#120,.F.);
#169=ORIENTED_EDGE('',*,*,#118,.F.);
#170=ORIENTED_EDGE('',*,*,#116,.F.);
#171=ORIENTED_EDGE('',*,*,#114,.F.);
#172=ORIENTED_EDGE('',*,*,#112,.F.);
#173=PLANE('',#216);
#174=PLANE('',#217);
#175=PLANE('',#218);
#176=PLANE('',#219);
#177=PLANE('',#220);
#178=PLANE('',#221);
#179=PLANE('',#222);
#180=PLANE('',#223);
#181=PLANE('',#224);
#182=PLANE('',#225);
#183=ADVANCED_FACE('',(#17),#173,.F.);
#184=ADVANCED_FACE('',(#18),#174,.T.);
#185=ADVANCED_FACE('',(#19),#175,.T.);
#186=ADVANCED_FACE('',(#20),#176,.T.);
#187=ADVANCED_FACE('',(#21),#177,.T.);
#188=ADVANCED_FACE('',(#22),#178,.T.);
#189=ADVANCED_FACE('',(#23),#179,.T.);
#190=ADVANCED_FACE('',(#24),#180,.T.);
#191=ADVANCED_FACE('',(#25),#181,.T.);
#192=ADVANCED_FACE('',(#26),#182,.T.);
#193=CLOSED_SHELL('',(#183,#184,#185,#186,#187,#188,#189,#190,#191,#192));
#194=DERIVED_UNIT_ELEMENT(#197,1.);
#195=DERIVED_UNIT_ELEMENT(#328,-3.);
#196=DIMENSIONAL_EXPONENTS(0.,1.,0.,0.,0.,0.,0.);
#197=(
CONVERSION_BASED_UNIT('gram',#199)
MASS_UNIT()
NAMED_UNIT(#196)
);
#198=(
MASS_UNIT()
NAMED_UNIT(*)
SI_UNIT(.KILO.,.GRAM.)
);
#199=MASS_MEASURE_WITH_UNIT(MASS_MEASURE(0.001),#198);
#200=DERIVED_UNIT((#194,#195));
#201=MEASURE_REPRESENTATION_ITEM('density measure',
POSITIVE_RATIO_MEASURE(8.03),#200);
#202=PROPERTY_DEFINITION_REPRESENTATION(#207,#204);
#203=PROPERTY_DEFINITION_REPRESENTATION(#208,#205);
#204=REPRESENTATION('material name',(#206),#325);
#205=REPRESENTATION('density',(#201),#325);
#206=DESCRIPTIVE_REPRESENTATION_ITEM('1.4301','1.4301');
#207=PROPERTY_DEFINITION('material property','material name',#335);
#208=PROPERTY_DEFINITION('material property','density of part',#335);
#209=DATE_TIME_ROLE('creation_date');
#210=APPLIED_DATE_AND_TIME_ASSIGNMENT(#211,#209,(#335));
#211=DATE_AND_TIME(#212,#213);
#212=CALENDAR_DATE(2011,17,10);
#213=LOCAL_TIME(0,0,0.,#214);
#214=COORDINATED_UNIVERSAL_TIME_OFFSET(0,0,.BEHIND.);
#215=AXIS2_PLACEMENT_3D('',#272,#226,#227);
#216=AXIS2_PLACEMENT_3D('',#273,#228,#229);
#217=AXIS2_PLACEMENT_3D('',#290,#238,#239);
#218=AXIS2_PLACEMENT_3D('',#296,#243,#244);
#219=AXIS2_PLACEMENT_3D('',#300,#247,#248);
#220=AXIS2_PLACEMENT_3D('',#304,#251,#252);
#221=AXIS2_PLACEMENT_3D('',#308,#255,#256);
#222=AXIS2_PLACEMENT_3D('',#312,#259,#260);
#223=AXIS2_PLACEMENT_3D('',#316,#263,#264);
#224=AXIS2_PLACEMENT_3D('',#320,#267,#268);
#225=AXIS2_PLACEMENT_3D('',#322,#270,#271);
#226=DIRECTION('axis',(0.,0.,1.));
#227=DIRECTION('refdir',(1.,0.,0.));
#228=DIRECTION('center_axis',(0.,0.,1.));
#229=DIRECTION('ref_axis',(1.,0.,0.));
#230=DIRECTION('',(2.22044604925031E-16,1.,0.));
#231=DIRECTION('',(1.,-1.85037170770859E-16,0.));
#232=DIRECTION('',(-1.8503717077086E-15,-1.,0.));
#233=DIRECTION('',(1.,0.,0.));
#234=DIRECTION('',(-1.8503717077086E-15,1.,0.));
#235=DIRECTION('',(1.,1.85037170770859E-16,0.));
#236=DIRECTION('',(4.75809867696496E-16,-1.,0.));
#237=DIRECTION('',(-0.913811548620257,-0.406138466053448,0.));
#238=DIRECTION('center_axis',(-1.,1.8503717077086E-15,0.));
#239=DIRECTION('ref_axis',(0.,0.,1.));
#240=DIRECTION('',(1.8503717077086E-15,1.,0.));
#241=DIRECTION('',(0.,0.,-1.));
#242=DIRECTION('',(0.,0.,-1.));
#243=DIRECTION('center_axis',(0.,-1.,0.));
#244=DIRECTION('ref_axis',(0.,0.,-1.));
#245=DIRECTION('',(-1.,0.,0.));
#246=DIRECTION('',(0.,0.,-1.));
#247=DIRECTION('center_axis',(1.,1.8503717077086E-15,0.));
#248=DIRECTION('ref_axis',(0.,0.,-1.));
#249=DIRECTION('',(1.8503717077086E-15,-1.,0.));
#250=DIRECTION('',(0.,0.,-1.));
#251=DIRECTION('center_axis',(1.85037170770859E-16,-1.,0.));
#252=DIRECTION('ref_axis',(0.,0.,-1.));
#253=DIRECTION('',(-1.,-1.85037170770859E-16,0.));
#254=DIRECTION('',(0.,0.,-1.));
#255=DIRECTION('center_axis',(-1.,-4.75809867696496E-16,0.));
#256=DIRECTION('ref_axis',(0.,0.,1.));
#257=DIRECTION('',(-4.75809867696496E-16,1.,0.));
#258=DIRECTION('',(0.,0.,-1.));
#259=DIRECTION('center_axis',(-0.406138466053447,0.913811548620257,0.));
#260=DIRECTION('ref_axis',(0.,0.,1.));
#261=DIRECTION('',(0.913811548620257,0.406138466053448,0.));
#262=DIRECTION('',(0.,0.,-1.));
#263=DIRECTION('center_axis',(1.,-2.22044604925031E-16,0.));
#264=DIRECTION('ref_axis',(0.,0.,-1.));
#265=DIRECTION('',(-2.22044604925031E-16,-1.,0.));
#266=DIRECTION('',(0.,0.,1.));
#267=DIRECTION('center_axis',(-1.85037170770859E-16,-1.,0.));
#268=DIRECTION('ref_axis',(0.,0.,-1.));
#269=DIRECTION('',(-1.,1.85037170770859E-16,0.));
#270=DIRECTION('center_axis',(0.,0.,1.));
#271=DIRECTION('ref_axis',(1.,0.,0.));
#272=CARTESIAN_POINT('',(0.,0.,0.));
#273=CARTESIAN_POINT('Origin',(1.14836719818026,5.82038544987445,-4.));
#274=CARTESIAN_POINT('',(9.,-5.55111512312578E-16,-4.));
#275=CARTESIAN_POINT('',(9.,15.,-4.));
#276=CARTESIAN_POINT('',(9.,15.,-4.));
#277=CARTESIAN_POINT('',(3.,5.55111512312578E-16,-4.));
#278=CARTESIAN_POINT('',(9.,-5.55111512312578E-16,-4.));
#279=CARTESIAN_POINT('',(3.,1.5,-4.));
#280=CARTESIAN_POINT('',(3.,5.55111512312578E-16,-4.));
#281=CARTESIAN_POINT('',(-3.,1.5,-4.));
#282=CARTESIAN_POINT('',(3.,1.5,-4.));
#283=CARTESIAN_POINT('',(-3.,5.55111512312578E-16,-4.));
#284=CARTESIAN_POINT('',(-3.,1.5,-4.));
#285=CARTESIAN_POINT('',(-9.,-5.55111512312578E-16,-4.));
#286=CARTESIAN_POINT('',(-3.,5.55111512312578E-16,-4.));
#287=CARTESIAN_POINT('',(-9.,7.,-4.));
#288=CARTESIAN_POINT('',(-9.,-5.55111512312578E-16,-4.));
#289=CARTESIAN_POINT('',(-9.,7.,-4.));
#290=CARTESIAN_POINT('Origin',(3.,5.55111512312578E-16,0.));
#291=CARTESIAN_POINT('',(3.,5.55111512312578E-16,4.));
#292=CARTESIAN_POINT('',(3.,1.5,4.));
#293=CARTESIAN_POINT('',(3.,5.55111512312578E-16,4.));
#294=CARTESIAN_POINT('',(3.,1.5,0.));
#295=CARTESIAN_POINT('',(3.,5.55111512312578E-16,0.));
#296=CARTESIAN_POINT('Origin',(3.,1.5,0.));
#297=CARTESIAN_POINT('',(-3.,1.5,4.));
#298=CARTESIAN_POINT('',(3.,1.5,4.));
#299=CARTESIAN_POINT('',(-3.,1.5,0.));
#300=CARTESIAN_POINT('Origin',(-3.,1.5,0.));
#301=CARTESIAN_POINT('',(-3.,5.55111512312578E-16,4.));
#302=CARTESIAN_POINT('',(-3.,1.5,4.));
#303=CARTESIAN_POINT('',(-3.,5.55111512312578E-16,0.));
#304=CARTESIAN_POINT('Origin',(-3.,5.55111512312578E-16,0.));
#305=CARTESIAN_POINT('',(-9.,-5.55111512312578E-16,4.));
#306=CARTESIAN_POINT('',(-3.,5.55111512312578E-16,4.));
#307=CARTESIAN_POINT('',(-9.,-5.55111512312578E-16,0.));
#308=CARTESIAN_POINT('Origin',(-9.,-5.55111512312578E-16,0.));
#309=CARTESIAN_POINT('',(-9.,7.,4.));
#310=CARTESIAN_POINT('',(-9.,-5.55111512312578E-16,4.));
#311=CARTESIAN_POINT('',(-9.,7.,0.));
#312=CARTESIAN_POINT('Origin',(-9.,7.,0.));
#313=CARTESIAN_POINT('',(9.,15.,4.));
#314=CARTESIAN_POINT('',(-9.,7.,4.));
#315=CARTESIAN_POINT('',(9.,15.,0.));
#316=CARTESIAN_POINT('Origin',(9.,15.,0.));
#317=CARTESIAN_POINT('',(9.,-5.55111512312578E-16,4.));
#318=CARTESIAN_POINT('',(9.,15.,4.));
#319=CARTESIAN_POINT('',(9.,-5.55111512312578E-16,0.));
#320=CARTESIAN_POINT('Origin',(9.,-5.55111512312578E-16,0.));
#321=CARTESIAN_POINT('',(9.,-5.55111512312578E-16,4.));
#322=CARTESIAN_POINT('Origin',(1.14836719818026,5.82038544987445,4.));
#323=UNCERTAINTY_MEASURE_WITH_UNIT(LENGTH_MEASURE(0.01),#327,
'DISTANCE_ACCURACY_VALUE',
'Maximum model space distance between geometric entities at asserted c
onnectivities');
#324=UNCERTAINTY_MEASURE_WITH_UNIT(LENGTH_MEASURE(0.01),#327,
'DISTANCE_ACCURACY_VALUE',
'Maximum model space distance between geometric entities at asserted c
onnectivities');
#325=(
GEOMETRIC_REPRESENTATION_CONTEXT(3)
GLOBAL_UNCERTAINTY_ASSIGNED_CONTEXT((#323))
GLOBAL_UNIT_ASSIGNED_CONTEXT((#327,#329,#330))
REPRESENTATION_CONTEXT('','3D')
);
#326=(
GEOMETRIC_REPRESENTATION_CONTEXT(3)
GLOBAL_UNCERTAINTY_ASSIGNED_CONTEXT((#324))
GLOBAL_UNIT_ASSIGNED_CONTEXT((#327,#329,#330))
REPRESENTATION_CONTEXT('','3D')
);
#327=(
LENGTH_UNIT()
NAMED_UNIT(*)
SI_UNIT(.MILLI.,.METRE.)
);
#328=(
LENGTH_UNIT()
NAMED_UNIT(*)
SI_UNIT(.CENTI.,.METRE.)
);
#329=(
NAMED_UNIT(*)
PLANE_ANGLE_UNIT()
SI_UNIT($,.RADIAN.)
);
#330=(
NAMED_UNIT(*)
SI_UNIT($,.STERADIAN.)
SOLID_ANGLE_UNIT()
);
#331=SHAPE_DEFINITION_REPRESENTATION(#332,#333);
#332=PRODUCT_DEFINITION_SHAPE('',$,#335);
#333=SHAPE_REPRESENTATION('',(#215),#325);
#334=PRODUCT_DEFINITION_CONTEXT('part definition',#339,'design');
#335=PRODUCT_DEFINITION('WKZ-0193','E_3_01_06_06_00_WKZ-0193',#336,#334);
#336=PRODUCT_DEFINITION_FORMATION('',$,#341);
#337=PRODUCT_RELATED_PRODUCT_CATEGORY('E_3_01_06_06_00_WKZ-0193',
'E_3_01_06_06_00_WKZ-0193',(#341));
#338=APPLICATION_PROTOCOL_DEFINITION('international standard',
'automotive_design',2009,#339);
#339=APPLICATION_CONTEXT(
'Core Data for Automotive Mechanical Design Process');
#340=PRODUCT_CONTEXT('part definition',#339,'mechanical');
#341=PRODUCT('WKZ-0193','E_3_01_06_06_00_WKZ-0193',$,(#340));
#342=PRESENTATION_STYLE_ASSIGNMENT((#344));
#343=PRESENTATION_STYLE_ASSIGNMENT((#345));
#344=SURFACE_STYLE_USAGE(.BOTH.,#348);
#345=SURFACE_STYLE_USAGE(.BOTH.,#349);
#346=SURFACE_STYLE_RENDERING_WITH_PROPERTIES($,#356,(#347));
#347=SURFACE_STYLE_TRANSPARENT(0.);
#348=SURFACE_SIDE_STYLE('',(#350,#346));
#349=SURFACE_SIDE_STYLE('',(#351));
#350=SURFACE_STYLE_FILL_AREA(#352);
#351=SURFACE_STYLE_FILL_AREA(#353);
#352=FILL_AREA_STYLE('',(#354));
#353=FILL_AREA_STYLE('',(#355));
#354=FILL_AREA_STYLE_COLOUR('',#356);
#355=FILL_AREA_STYLE_COLOUR('',#357);
#356=COLOUR_RGB('',0.92156862745098,0.92156862745098,0.92156862745098);
#357=COLOUR_RGB('',0.16078431372549,0.16078431372549,0.16078431372549);
ENDSEC;
END-ISO-10303-21;
