ISO-10303-21;
HEADER;
/* Generated by software containing ST-Developer
 * from STEP Tools, Inc. (www.steptools.com) 
 */

FILE_DESCRIPTION(
/* description */ (''),
/* implementation_level */ '2;1');

FILE_NAME(
/* name */ 'E_3_01_06_06_00_WKZ-0110.stp',
/* time_stamp */ '2025-11-24T11:38:22+01:00',
/* author */ ('d.fischer'),
/* organization */ (''),
/* preprocessor_version */ 'ST-DEVELOPER v20',
/* originating_system */ 'Autodesk Inventor 2025',
/* authorisation */ '');

FILE_SCHEMA (('AUTOMOTIVE_DESIGN { 1 0 10303 214 3 1 1 }'));
ENDSEC;

DATA;
#10=MECHANICAL_DESIGN_GEOMETRIC_PRESENTATION_REPRESENTATION('',(#14,#15),
#556);
#11=SHAPE_REPRESENTATION_RELATIONSHIP('SRR','None',#563,#12);
#12=ADVANCED_BREP_SHAPE_REPRESENTATION('',(#13),#555);
#13=MANIFOLD_SOLID_BREP('Volumenk\X\F6rper1',#339);
#14=STYLED_ITEM('',(#573),#325);
#15=STYLED_ITEM('',(#572),#13);
#16=FACE_OUTER_BOUND('',#33,.T.);
#17=FACE_OUTER_BOUND('',#34,.T.);
#18=FACE_OUTER_BOUND('',#35,.T.);
#19=FACE_OUTER_BOUND('',#36,.T.);
#20=FACE_OUTER_BOUND('',#37,.T.);
#21=FACE_OUTER_BOUND('',#38,.T.);
#22=FACE_OUTER_BOUND('',#39,.T.);
#23=FACE_OUTER_BOUND('',#40,.T.);
#24=FACE_OUTER_BOUND('',#41,.T.);
#25=FACE_OUTER_BOUND('',#42,.T.);
#26=FACE_OUTER_BOUND('',#43,.T.);
#27=FACE_OUTER_BOUND('',#44,.T.);
#28=FACE_OUTER_BOUND('',#45,.T.);
#29=FACE_OUTER_BOUND('',#46,.T.);
#30=FACE_OUTER_BOUND('',#47,.T.);
#31=FACE_OUTER_BOUND('',#48,.T.);
#32=FACE_OUTER_BOUND('',#49,.T.);
#33=EDGE_LOOP('',(#215,#216,#217,#218));
#34=EDGE_LOOP('',(#219,#220,#221,#222));
#35=EDGE_LOOP('',(#223,#224,#225,#226));
#36=EDGE_LOOP('',(#227,#228,#229,#230));
#37=EDGE_LOOP('',(#231,#232,#233,#234));
#38=EDGE_LOOP('',(#235,#236,#237,#238));
#39=EDGE_LOOP('',(#239,#240,#241,#242));
#40=EDGE_LOOP('',(#243,#244,#245,#246));
#41=EDGE_LOOP('',(#247,#248,#249,#250));
#42=EDGE_LOOP('',(#251,#252,#253,#254));
#43=EDGE_LOOP('',(#255,#256,#257,#258));
#44=EDGE_LOOP('',(#259,#260,#261,#262));
#45=EDGE_LOOP('',(#263,#264,#265,#266));
#46=EDGE_LOOP('',(#267,#268,#269,#270));
#47=EDGE_LOOP('',(#271,#272,#273,#274));
#48=EDGE_LOOP('',(#275,#276,#277,#278,#279,#280,#281,#282,#283,#284,#285,
#286,#287,#288,#289));
#49=EDGE_LOOP('',(#290,#291,#292,#293,#294,#295,#296,#297,#298,#299,#300,
#301,#302,#303,#304));
#50=LINE('',#464,#95);
#51=LINE('',#466,#96);
#52=LINE('',#468,#97);
#53=LINE('',#469,#98);
#54=LINE('',#472,#99);
#55=LINE('',#474,#100);
#56=LINE('',#475,#101);
#57=LINE('',#478,#102);
#58=LINE('',#480,#103);
#59=LINE('',#481,#104);
#60=LINE('',#484,#105);
#61=LINE('',#486,#106);
#62=LINE('',#487,#107);
#63=LINE('',#490,#108);
#64=LINE('',#492,#109);
#65=LINE('',#493,#110);
#66=LINE('',#496,#111);
#67=LINE('',#498,#112);
#68=LINE('',#499,#113);
#69=LINE('',#502,#114);
#70=LINE('',#504,#115);
#71=LINE('',#505,#116);
#72=LINE('',#508,#117);
#73=LINE('',#510,#118);
#74=LINE('',#511,#119);
#75=LINE('',#514,#120);
#76=LINE('',#516,#121);
#77=LINE('',#517,#122);
#78=LINE('',#520,#123);
#79=LINE('',#522,#124);
#80=LINE('',#523,#125);
#81=LINE('',#526,#126);
#82=LINE('',#528,#127);
#83=LINE('',#529,#128);
#84=LINE('',#532,#129);
#85=LINE('',#534,#130);
#86=LINE('',#535,#131);
#87=LINE('',#538,#132);
#88=LINE('',#540,#133);
#89=LINE('',#541,#134);
#90=LINE('',#544,#135);
#91=LINE('',#546,#136);
#92=LINE('',#547,#137);
#93=LINE('',#549,#138);
#94=LINE('',#550,#139);
#95=VECTOR('',#383,10.);
#96=VECTOR('',#384,10.);
#97=VECTOR('',#385,10.);
#98=VECTOR('',#386,10.);
#99=VECTOR('',#389,10.);
#100=VECTOR('',#390,10.);
#101=VECTOR('',#391,10.);
#102=VECTOR('',#394,10.);
#103=VECTOR('',#395,10.);
#104=VECTOR('',#396,10.);
#105=VECTOR('',#399,10.);
#106=VECTOR('',#400,10.);
#107=VECTOR('',#401,10.);
#108=VECTOR('',#404,10.);
#109=VECTOR('',#405,10.);
#110=VECTOR('',#406,10.);
#111=VECTOR('',#409,10.);
#112=VECTOR('',#410,10.);
#113=VECTOR('',#411,10.);
#114=VECTOR('',#414,10.);
#115=VECTOR('',#415,10.);
#116=VECTOR('',#416,10.);
#117=VECTOR('',#419,10.);
#118=VECTOR('',#420,10.);
#119=VECTOR('',#421,10.);
#120=VECTOR('',#424,10.);
#121=VECTOR('',#425,10.);
#122=VECTOR('',#426,10.);
#123=VECTOR('',#429,10.);
#124=VECTOR('',#430,10.);
#125=VECTOR('',#431,10.);
#126=VECTOR('',#434,10.);
#127=VECTOR('',#435,10.);
#128=VECTOR('',#436,10.);
#129=VECTOR('',#439,10.);
#130=VECTOR('',#440,10.);
#131=VECTOR('',#441,10.);
#132=VECTOR('',#444,10.);
#133=VECTOR('',#445,10.);
#134=VECTOR('',#446,10.);
#135=VECTOR('',#449,10.);
#136=VECTOR('',#450,10.);
#137=VECTOR('',#451,10.);
#138=VECTOR('',#454,10.);
#139=VECTOR('',#455,10.);
#140=VERTEX_POINT('',#462);
#141=VERTEX_POINT('',#463);
#142=VERTEX_POINT('',#465);
#143=VERTEX_POINT('',#467);
#144=VERTEX_POINT('',#471);
#145=VERTEX_POINT('',#473);
#146=VERTEX_POINT('',#477);
#147=VERTEX_POINT('',#479);
#148=VERTEX_POINT('',#483);
#149=VERTEX_POINT('',#485);
#150=VERTEX_POINT('',#489);
#151=VERTEX_POINT('',#491);
#152=VERTEX_POINT('',#495);
#153=VERTEX_POINT('',#497);
#154=VERTEX_POINT('',#501);
#155=VERTEX_POINT('',#503);
#156=VERTEX_POINT('',#507);
#157=VERTEX_POINT('',#509);
#158=VERTEX_POINT('',#513);
#159=VERTEX_POINT('',#515);
#160=VERTEX_POINT('',#519);
#161=VERTEX_POINT('',#521);
#162=VERTEX_POINT('',#525);
#163=VERTEX_POINT('',#527);
#164=VERTEX_POINT('',#531);
#165=VERTEX_POINT('',#533);
#166=VERTEX_POINT('',#537);
#167=VERTEX_POINT('',#539);
#168=VERTEX_POINT('',#543);
#169=VERTEX_POINT('',#545);
#170=EDGE_CURVE('',#140,#141,#50,.T.);
#171=EDGE_CURVE('',#142,#141,#51,.T.);
#172=EDGE_CURVE('',#143,#142,#52,.T.);
#173=EDGE_CURVE('',#143,#140,#53,.T.);
#174=EDGE_CURVE('',#141,#144,#54,.T.);
#175=EDGE_CURVE('',#145,#144,#55,.T.);
#176=EDGE_CURVE('',#142,#145,#56,.T.);
#177=EDGE_CURVE('',#144,#146,#57,.T.);
#178=EDGE_CURVE('',#147,#146,#58,.T.);
#179=EDGE_CURVE('',#145,#147,#59,.T.);
#180=EDGE_CURVE('',#146,#148,#60,.T.);
#181=EDGE_CURVE('',#149,#148,#61,.T.);
#182=EDGE_CURVE('',#147,#149,#62,.T.);
#183=EDGE_CURVE('',#148,#150,#63,.T.);
#184=EDGE_CURVE('',#151,#150,#64,.T.);
#185=EDGE_CURVE('',#149,#151,#65,.T.);
#186=EDGE_CURVE('',#150,#152,#66,.T.);
#187=EDGE_CURVE('',#153,#152,#67,.T.);
#188=EDGE_CURVE('',#151,#153,#68,.T.);
#189=EDGE_CURVE('',#152,#154,#69,.T.);
#190=EDGE_CURVE('',#155,#154,#70,.T.);
#191=EDGE_CURVE('',#153,#155,#71,.T.);
#192=EDGE_CURVE('',#154,#156,#72,.T.);
#193=EDGE_CURVE('',#157,#156,#73,.T.);
#194=EDGE_CURVE('',#155,#157,#74,.T.);
#195=EDGE_CURVE('',#156,#158,#75,.T.);
#196=EDGE_CURVE('',#159,#158,#76,.T.);
#197=EDGE_CURVE('',#157,#159,#77,.T.);
#198=EDGE_CURVE('',#158,#160,#78,.T.);
#199=EDGE_CURVE('',#161,#160,#79,.T.);
#200=EDGE_CURVE('',#159,#161,#80,.T.);
#201=EDGE_CURVE('',#160,#162,#81,.T.);
#202=EDGE_CURVE('',#163,#162,#82,.T.);
#203=EDGE_CURVE('',#161,#163,#83,.T.);
#204=EDGE_CURVE('',#162,#164,#84,.T.);
#205=EDGE_CURVE('',#165,#164,#85,.T.);
#206=EDGE_CURVE('',#163,#165,#86,.T.);
#207=EDGE_CURVE('',#164,#166,#87,.T.);
#208=EDGE_CURVE('',#167,#166,#88,.T.);
#209=EDGE_CURVE('',#165,#167,#89,.T.);
#210=EDGE_CURVE('',#166,#168,#90,.T.);
#211=EDGE_CURVE('',#169,#168,#91,.T.);
#212=EDGE_CURVE('',#167,#169,#92,.T.);
#213=EDGE_CURVE('',#168,#140,#93,.T.);
#214=EDGE_CURVE('',#169,#143,#94,.T.);
#215=ORIENTED_EDGE('',*,*,#170,.T.);
#216=ORIENTED_EDGE('',*,*,#171,.F.);
#217=ORIENTED_EDGE('',*,*,#172,.F.);
#218=ORIENTED_EDGE('',*,*,#173,.T.);
#219=ORIENTED_EDGE('',*,*,#174,.T.);
#220=ORIENTED_EDGE('',*,*,#175,.F.);
#221=ORIENTED_EDGE('',*,*,#176,.F.);
#222=ORIENTED_EDGE('',*,*,#171,.T.);
#223=ORIENTED_EDGE('',*,*,#177,.T.);
#224=ORIENTED_EDGE('',*,*,#178,.F.);
#225=ORIENTED_EDGE('',*,*,#179,.F.);
#226=ORIENTED_EDGE('',*,*,#175,.T.);
#227=ORIENTED_EDGE('',*,*,#180,.T.);
#228=ORIENTED_EDGE('',*,*,#181,.F.);
#229=ORIENTED_EDGE('',*,*,#182,.F.);
#230=ORIENTED_EDGE('',*,*,#178,.T.);
#231=ORIENTED_EDGE('',*,*,#183,.T.);
#232=ORIENTED_EDGE('',*,*,#184,.F.);
#233=ORIENTED_EDGE('',*,*,#185,.F.);
#234=ORIENTED_EDGE('',*,*,#181,.T.);
#235=ORIENTED_EDGE('',*,*,#186,.T.);
#236=ORIENTED_EDGE('',*,*,#187,.F.);
#237=ORIENTED_EDGE('',*,*,#188,.F.);
#238=ORIENTED_EDGE('',*,*,#184,.T.);
#239=ORIENTED_EDGE('',*,*,#189,.T.);
#240=ORIENTED_EDGE('',*,*,#190,.F.);
#241=ORIENTED_EDGE('',*,*,#191,.F.);
#242=ORIENTED_EDGE('',*,*,#187,.T.);
#243=ORIENTED_EDGE('',*,*,#192,.T.);
#244=ORIENTED_EDGE('',*,*,#193,.F.);
#245=ORIENTED_EDGE('',*,*,#194,.F.);
#246=ORIENTED_EDGE('',*,*,#190,.T.);
#247=ORIENTED_EDGE('',*,*,#195,.T.);
#248=ORIENTED_EDGE('',*,*,#196,.F.);
#249=ORIENTED_EDGE('',*,*,#197,.F.);
#250=ORIENTED_EDGE('',*,*,#193,.T.);
#251=ORIENTED_EDGE('',*,*,#198,.T.);
#252=ORIENTED_EDGE('',*,*,#199,.F.);
#253=ORIENTED_EDGE('',*,*,#200,.F.);
#254=ORIENTED_EDGE('',*,*,#196,.T.);
#255=ORIENTED_EDGE('',*,*,#201,.T.);
#256=ORIENTED_EDGE('',*,*,#202,.F.);
#257=ORIENTED_EDGE('',*,*,#203,.F.);
#258=ORIENTED_EDGE('',*,*,#199,.T.);
#259=ORIENTED_EDGE('',*,*,#204,.T.);
#260=ORIENTED_EDGE('',*,*,#205,.F.);
#261=ORIENTED_EDGE('',*,*,#206,.F.);
#262=ORIENTED_EDGE('',*,*,#202,.T.);
#263=ORIENTED_EDGE('',*,*,#207,.T.);
#264=ORIENTED_EDGE('',*,*,#208,.F.);
#265=ORIENTED_EDGE('',*,*,#209,.F.);
#266=ORIENTED_EDGE('',*,*,#205,.T.);
#267=ORIENTED_EDGE('',*,*,#210,.T.);
#268=ORIENTED_EDGE('',*,*,#211,.F.);
#269=ORIENTED_EDGE('',*,*,#212,.F.);
#270=ORIENTED_EDGE('',*,*,#208,.T.);
#271=ORIENTED_EDGE('',*,*,#213,.T.);
#272=ORIENTED_EDGE('',*,*,#173,.F.);
#273=ORIENTED_EDGE('',*,*,#214,.F.);
#274=ORIENTED_EDGE('',*,*,#211,.T.);
#275=ORIENTED_EDGE('',*,*,#170,.F.);
#276=ORIENTED_EDGE('',*,*,#213,.F.);
#277=ORIENTED_EDGE('',*,*,#210,.F.);
#278=ORIENTED_EDGE('',*,*,#207,.F.);
#279=ORIENTED_EDGE('',*,*,#204,.F.);
#280=ORIENTED_EDGE('',*,*,#201,.F.);
#281=ORIENTED_EDGE('',*,*,#198,.F.);
#282=ORIENTED_EDGE('',*,*,#195,.F.);
#283=ORIENTED_EDGE('',*,*,#192,.F.);
#284=ORIENTED_EDGE('',*,*,#189,.F.);
#285=ORIENTED_EDGE('',*,*,#186,.F.);
#286=ORIENTED_EDGE('',*,*,#183,.F.);
#287=ORIENTED_EDGE('',*,*,#180,.F.);
#288=ORIENTED_EDGE('',*,*,#177,.F.);
#289=ORIENTED_EDGE('',*,*,#174,.F.);
#290=ORIENTED_EDGE('',*,*,#214,.T.);
#291=ORIENTED_EDGE('',*,*,#172,.T.);
#292=ORIENTED_EDGE('',*,*,#176,.T.);
#293=ORIENTED_EDGE('',*,*,#179,.T.);
#294=ORIENTED_EDGE('',*,*,#182,.T.);
#295=ORIENTED_EDGE('',*,*,#185,.T.);
#296=ORIENTED_EDGE('',*,*,#188,.T.);
#297=ORIENTED_EDGE('',*,*,#191,.T.);
#298=ORIENTED_EDGE('',*,*,#194,.T.);
#299=ORIENTED_EDGE('',*,*,#197,.T.);
#300=ORIENTED_EDGE('',*,*,#200,.T.);
#301=ORIENTED_EDGE('',*,*,#203,.T.);
#302=ORIENTED_EDGE('',*,*,#206,.T.);
#303=ORIENTED_EDGE('',*,*,#209,.T.);
#304=ORIENTED_EDGE('',*,*,#212,.T.);
#305=PLANE('',#362);
#306=PLANE('',#363);
#307=PLANE('',#364);
#308=PLANE('',#365);
#309=PLANE('',#366);
#310=PLANE('',#367);
#311=PLANE('',#368);
#312=PLANE('',#369);
#313=PLANE('',#370);
#314=PLANE('',#371);
#315=PLANE('',#372);
#316=PLANE('',#373);
#317=PLANE('',#374);
#318=PLANE('',#375);
#319=PLANE('',#376);
#320=PLANE('',#377);
#321=PLANE('',#378);
#322=ADVANCED_FACE('',(#16),#305,.T.);
#323=ADVANCED_FACE('',(#17),#306,.T.);
#324=ADVANCED_FACE('',(#18),#307,.T.);
#325=ADVANCED_FACE('',(#19),#308,.T.);
#326=ADVANCED_FACE('',(#20),#309,.T.);
#327=ADVANCED_FACE('',(#21),#310,.T.);
#328=ADVANCED_FACE('',(#22),#311,.T.);
#329=ADVANCED_FACE('',(#23),#312,.T.);
#330=ADVANCED_FACE('',(#24),#313,.T.);
#331=ADVANCED_FACE('',(#25),#314,.T.);
#332=ADVANCED_FACE('',(#26),#315,.T.);
#333=ADVANCED_FACE('',(#27),#316,.T.);
#334=ADVANCED_FACE('',(#28),#317,.T.);
#335=ADVANCED_FACE('',(#29),#318,.T.);
#336=ADVANCED_FACE('',(#30),#319,.T.);
#337=ADVANCED_FACE('',(#31),#320,.T.);
#338=ADVANCED_FACE('',(#32),#321,.F.);
#339=CLOSED_SHELL('',(#322,#323,#324,#325,#326,#327,#328,#329,#330,#331,
#332,#333,#334,#335,#336,#337,#338));
#340=DERIVED_UNIT_ELEMENT(#343,1.);
#341=DERIVED_UNIT_ELEMENT(#558,-3.);
#342=DIMENSIONAL_EXPONENTS(0.,1.,0.,0.,0.,0.,0.);
#343=(
CONVERSION_BASED_UNIT('gram',#345)
MASS_UNIT()
NAMED_UNIT(#342)
);
#344=(
MASS_UNIT()
NAMED_UNIT(*)
SI_UNIT(.KILO.,.GRAM.)
);
#345=MASS_MEASURE_WITH_UNIT(MASS_MEASURE(0.001),#344);
#346=DERIVED_UNIT((#340,#341));
#347=MEASURE_REPRESENTATION_ITEM('density measure',
POSITIVE_RATIO_MEASURE(8.03),#346);
#348=PROPERTY_DEFINITION_REPRESENTATION(#353,#350);
#349=PROPERTY_DEFINITION_REPRESENTATION(#354,#351);
#350=REPRESENTATION('material name',(#352),#555);
#351=REPRESENTATION('density',(#347),#555);
#352=DESCRIPTIVE_REPRESENTATION_ITEM('1.4301','1.4301');
#353=PROPERTY_DEFINITION('material property','material name',#565);
#354=PROPERTY_DEFINITION('material property','density of part',#565);
#355=DATE_TIME_ROLE('creation_date');
#356=APPLIED_DATE_AND_TIME_ASSIGNMENT(#357,#355,(#565));
#357=DATE_AND_TIME(#358,#359);
#358=CALENDAR_DATE(2011,21,10);
#359=LOCAL_TIME(0,0,0.,#360);
#360=COORDINATED_UNIVERSAL_TIME_OFFSET(0,0,.BEHIND.);
#361=AXIS2_PLACEMENT_3D('',#460,#379,#380);
#362=AXIS2_PLACEMENT_3D('',#461,#381,#382);
#363=AXIS2_PLACEMENT_3D('',#470,#387,#388);
#364=AXIS2_PLACEMENT_3D('',#476,#392,#393);
#365=AXIS2_PLACEMENT_3D('',#482,#397,#398);
#366=AXIS2_PLACEMENT_3D('',#488,#402,#403);
#367=AXIS2_PLACEMENT_3D('',#494,#407,#408);
#368=AXIS2_PLACEMENT_3D('',#500,#412,#413);
#369=AXIS2_PLACEMENT_3D('',#506,#417,#418);
#370=AXIS2_PLACEMENT_3D('',#512,#422,#423);
#371=AXIS2_PLACEMENT_3D('',#518,#427,#428);
#372=AXIS2_PLACEMENT_3D('',#524,#432,#433);
#373=AXIS2_PLACEMENT_3D('',#530,#437,#438);
#374=AXIS2_PLACEMENT_3D('',#536,#442,#443);
#375=AXIS2_PLACEMENT_3D('',#542,#447,#448);
#376=AXIS2_PLACEMENT_3D('',#548,#452,#453);
#377=AXIS2_PLACEMENT_3D('',#551,#456,#457);
#378=AXIS2_PLACEMENT_3D('',#552,#458,#459);
#379=DIRECTION('axis',(0.,0.,1.));
#380=DIRECTION('refdir',(1.,0.,0.));
#381=DIRECTION('center_axis',(-1.,-7.40148683083438E-16,0.));
#382=DIRECTION('ref_axis',(0.,0.,1.));
#383=DIRECTION('',(-7.40148683083438E-16,1.,0.));
#384=DIRECTION('',(0.,0.,1.));
#385=DIRECTION('',(-7.40148683083438E-16,1.,0.));
#386=DIRECTION('',(0.,0.,1.));
#387=DIRECTION('center_axis',(0.,-1.,0.));
#388=DIRECTION('ref_axis',(0.,0.,-1.));
#389=DIRECTION('',(-1.,0.,0.));
#390=DIRECTION('',(0.,0.,1.));
#391=DIRECTION('',(-1.,0.,0.));
#392=DIRECTION('center_axis',(1.,-7.40148683083438E-16,0.));
#393=DIRECTION('ref_axis',(0.,0.,-1.));
#394=DIRECTION('',(-7.40148683083438E-16,-1.,0.));
#395=DIRECTION('',(0.,0.,1.));
#396=DIRECTION('',(-7.40148683083438E-16,-1.,0.));
#397=DIRECTION('center_axis',(0.,-1.,0.));
#398=DIRECTION('ref_axis',(0.,0.,-1.));
#399=DIRECTION('',(-1.,0.,0.));
#400=DIRECTION('',(0.,0.,1.));
#401=DIRECTION('',(-1.,0.,0.));
#402=DIRECTION('center_axis',(-1.,-7.40148683083438E-16,0.));
#403=DIRECTION('ref_axis',(0.,0.,1.));
#404=DIRECTION('',(-7.40148683083438E-16,1.,0.));
#405=DIRECTION('',(0.,0.,1.));
#406=DIRECTION('',(-7.40148683083438E-16,1.,0.));
#407=DIRECTION('center_axis',(0.,-1.,0.));
#408=DIRECTION('ref_axis',(0.,0.,-1.));
#409=DIRECTION('',(-1.,0.,0.));
#410=DIRECTION('',(0.,0.,1.));
#411=DIRECTION('',(-1.,0.,0.));
#412=DIRECTION('center_axis',(1.,-7.40148683083438E-16,0.));
#413=DIRECTION('ref_axis',(0.,0.,-1.));
#414=DIRECTION('',(-7.40148683083438E-16,-1.,0.));
#415=DIRECTION('',(0.,0.,1.));
#416=DIRECTION('',(-7.40148683083438E-16,-1.,0.));
#417=DIRECTION('center_axis',(0.,-1.,0.));
#418=DIRECTION('ref_axis',(0.,0.,-1.));
#419=DIRECTION('',(-1.,0.,0.));
#420=DIRECTION('',(0.,0.,1.));
#421=DIRECTION('',(-1.,0.,0.));
#422=DIRECTION('center_axis',(-1.,0.,0.));
#423=DIRECTION('ref_axis',(0.,0.,1.));
#424=DIRECTION('',(0.,1.,0.));
#425=DIRECTION('',(0.,0.,1.));
#426=DIRECTION('',(0.,1.,0.));
#427=DIRECTION('center_axis',(-0.975609756097561,0.219512195121951,0.));
#428=DIRECTION('ref_axis',(0.,0.,1.));
#429=DIRECTION('',(0.219512195121951,0.975609756097561,0.));
#430=DIRECTION('',(0.,0.,1.));
#431=DIRECTION('',(0.219512195121951,0.975609756097561,0.));
#432=DIRECTION('center_axis',(0.,1.,0.));
#433=DIRECTION('ref_axis',(0.,0.,1.));
#434=DIRECTION('',(1.,0.,0.));
#435=DIRECTION('',(0.,0.,1.));
#436=DIRECTION('',(1.,0.,0.));
#437=DIRECTION('center_axis',(1.,0.,0.));
#438=DIRECTION('ref_axis',(0.,0.,-1.));
#439=DIRECTION('',(0.,-1.,0.));
#440=DIRECTION('',(0.,0.,1.));
#441=DIRECTION('',(0.,-1.,0.));
#442=DIRECTION('center_axis',(0.,-1.,0.));
#443=DIRECTION('ref_axis',(0.,0.,-1.));
#444=DIRECTION('',(-1.,0.,0.));
#445=DIRECTION('',(0.,0.,1.));
#446=DIRECTION('',(-1.,0.,0.));
#447=DIRECTION('center_axis',(1.,0.,0.));
#448=DIRECTION('ref_axis',(0.,0.,-1.));
#449=DIRECTION('',(0.,-1.,0.));
#450=DIRECTION('',(0.,0.,1.));
#451=DIRECTION('',(0.,-1.,0.));
#452=DIRECTION('center_axis',(0.,-1.,0.));
#453=DIRECTION('ref_axis',(0.,0.,-1.));
#454=DIRECTION('',(-1.,0.,0.));
#455=DIRECTION('',(-1.,0.,0.));
#456=DIRECTION('center_axis',(0.,0.,1.));
#457=DIRECTION('ref_axis',(1.,0.,0.));
#458=DIRECTION('center_axis',(0.,0.,1.));
#459=DIRECTION('ref_axis',(1.,0.,0.));
#460=CARTESIAN_POINT('',(0.,0.,0.));
#461=CARTESIAN_POINT('Origin',(7.,0.,0.));
#462=CARTESIAN_POINT('',(7.,0.,30.));
#463=CARTESIAN_POINT('',(7.,3.,30.));
#464=CARTESIAN_POINT('',(7.,0.,30.));
#465=CARTESIAN_POINT('',(7.,3.,0.));
#466=CARTESIAN_POINT('',(7.,3.,0.));
#467=CARTESIAN_POINT('',(7.,0.,0.));
#468=CARTESIAN_POINT('',(7.,0.,0.));
#469=CARTESIAN_POINT('',(7.,0.,0.));
#470=CARTESIAN_POINT('Origin',(7.,3.,0.));
#471=CARTESIAN_POINT('',(4.5,3.,30.));
#472=CARTESIAN_POINT('',(7.,3.,30.));
#473=CARTESIAN_POINT('',(4.5,3.,0.));
#474=CARTESIAN_POINT('',(4.5,3.,0.));
#475=CARTESIAN_POINT('',(7.,3.,0.));
#476=CARTESIAN_POINT('Origin',(4.5,3.,0.));
#477=CARTESIAN_POINT('',(4.5,9.86076131526265E-31,30.));
#478=CARTESIAN_POINT('',(4.5,3.,30.));
#479=CARTESIAN_POINT('',(4.5,9.86076131526265E-31,0.));
#480=CARTESIAN_POINT('',(4.5,9.86076131526265E-31,0.));
#481=CARTESIAN_POINT('',(4.5,3.,0.));
#482=CARTESIAN_POINT('Origin',(4.5,9.86076131526265E-31,0.));
#483=CARTESIAN_POINT('',(-4.5,9.86076131526265E-31,30.));
#484=CARTESIAN_POINT('',(4.5,9.86076131526265E-31,30.));
#485=CARTESIAN_POINT('',(-4.5,9.86076131526265E-31,0.));
#486=CARTESIAN_POINT('',(-4.5,9.86076131526265E-31,0.));
#487=CARTESIAN_POINT('',(4.5,9.86076131526265E-31,0.));
#488=CARTESIAN_POINT('Origin',(-4.5,9.86076131526265E-31,0.));
#489=CARTESIAN_POINT('',(-4.5,3.,30.));
#490=CARTESIAN_POINT('',(-4.5,9.86076131526265E-31,30.));
#491=CARTESIAN_POINT('',(-4.5,3.,0.));
#492=CARTESIAN_POINT('',(-4.5,3.,0.));
#493=CARTESIAN_POINT('',(-4.5,9.86076131526265E-31,0.));
#494=CARTESIAN_POINT('Origin',(-4.5,3.,0.));
#495=CARTESIAN_POINT('',(-7.,3.,30.));
#496=CARTESIAN_POINT('',(-4.5,3.,30.));
#497=CARTESIAN_POINT('',(-7.,3.,0.));
#498=CARTESIAN_POINT('',(-7.,3.,0.));
#499=CARTESIAN_POINT('',(-4.5,3.,0.));
#500=CARTESIAN_POINT('Origin',(-7.,3.,0.));
#501=CARTESIAN_POINT('',(-7.,0.,30.));
#502=CARTESIAN_POINT('',(-7.,3.,30.));
#503=CARTESIAN_POINT('',(-7.,0.,0.));
#504=CARTESIAN_POINT('',(-7.,0.,0.));
#505=CARTESIAN_POINT('',(-7.,3.,0.));
#506=CARTESIAN_POINT('Origin',(-7.,0.,0.));
#507=CARTESIAN_POINT('',(-11.,0.,30.));
#508=CARTESIAN_POINT('',(-7.,0.,30.));
#509=CARTESIAN_POINT('',(-11.,0.,0.));
#510=CARTESIAN_POINT('',(-11.,0.,0.));
#511=CARTESIAN_POINT('',(-7.,0.,0.));
#512=CARTESIAN_POINT('Origin',(-11.,0.,0.));
#513=CARTESIAN_POINT('',(-11.,5.,30.));
#514=CARTESIAN_POINT('',(-11.,0.,30.));
#515=CARTESIAN_POINT('',(-11.,5.,0.));
#516=CARTESIAN_POINT('',(-11.,5.,0.));
#517=CARTESIAN_POINT('',(-11.,0.,0.));
#518=CARTESIAN_POINT('Origin',(-11.,5.,0.));
#519=CARTESIAN_POINT('',(-2.,45.,30.));
#520=CARTESIAN_POINT('',(-11.,5.,30.));
#521=CARTESIAN_POINT('',(-2.,45.,0.));
#522=CARTESIAN_POINT('',(-2.,45.,0.));
#523=CARTESIAN_POINT('',(-11.,5.,0.));
#524=CARTESIAN_POINT('Origin',(-2.,45.,0.));
#525=CARTESIAN_POINT('',(18.,45.,30.));
#526=CARTESIAN_POINT('',(-2.,45.,30.));
#527=CARTESIAN_POINT('',(18.,45.,0.));
#528=CARTESIAN_POINT('',(18.,45.,0.));
#529=CARTESIAN_POINT('',(-2.,45.,0.));
#530=CARTESIAN_POINT('Origin',(18.,45.,0.));
#531=CARTESIAN_POINT('',(18.,29.,30.));
#532=CARTESIAN_POINT('',(18.,45.,30.));
#533=CARTESIAN_POINT('',(18.,29.,0.));
#534=CARTESIAN_POINT('',(18.,29.,0.));
#535=CARTESIAN_POINT('',(18.,45.,0.));
#536=CARTESIAN_POINT('Origin',(18.,29.,0.));
#537=CARTESIAN_POINT('',(11.,29.,30.));
#538=CARTESIAN_POINT('',(18.,29.,30.));
#539=CARTESIAN_POINT('',(11.,29.,0.));
#540=CARTESIAN_POINT('',(11.,29.,0.));
#541=CARTESIAN_POINT('',(18.,29.,0.));
#542=CARTESIAN_POINT('Origin',(11.,29.,0.));
#543=CARTESIAN_POINT('',(11.,0.,30.));
#544=CARTESIAN_POINT('',(11.,29.,30.));
#545=CARTESIAN_POINT('',(11.,0.,0.));
#546=CARTESIAN_POINT('',(11.,0.,0.));
#547=CARTESIAN_POINT('',(11.,29.,0.));
#548=CARTESIAN_POINT('Origin',(11.,0.,0.));
#549=CARTESIAN_POINT('',(11.,0.,30.));
#550=CARTESIAN_POINT('',(11.,0.,0.));
#551=CARTESIAN_POINT('Origin',(3.59868421052632,20.9605263157895,30.));
#552=CARTESIAN_POINT('Origin',(3.59868421052632,20.9605263157895,0.));
#553=UNCERTAINTY_MEASURE_WITH_UNIT(LENGTH_MEASURE(0.01),#557,
'DISTANCE_ACCURACY_VALUE',
'Maximum model space distance between geometric entities at asserted c
onnectivities');
#554=UNCERTAINTY_MEASURE_WITH_UNIT(LENGTH_MEASURE(0.01),#557,
'DISTANCE_ACCURACY_VALUE',
'Maximum model space distance between geometric entities at asserted c
onnectivities');
#555=(
GEOMETRIC_REPRESENTATION_CONTEXT(3)
GLOBAL_UNCERTAINTY_ASSIGNED_CONTEXT((#553))
GLOBAL_UNIT_ASSIGNED_CONTEXT((#557,#559,#560))
REPRESENTATION_CONTEXT('','3D')
);
#556=(
GEOMETRIC_REPRESENTATION_CONTEXT(3)
GLOBAL_UNCERTAINTY_ASSIGNED_CONTEXT((#554))
GLOBAL_UNIT_ASSIGNED_CONTEXT((#557,#559,#560))
REPRESENTATION_CONTEXT('','3D')
);
#557=(
LENGTH_UNIT()
NAMED_UNIT(*)
SI_UNIT(.MILLI.,.METRE.)
);
#558=(
LENGTH_UNIT()
NAMED_UNIT(*)
SI_UNIT(.CENTI.,.METRE.)
);
#559=(
NAMED_UNIT(*)
PLANE_ANGLE_UNIT()
SI_UNIT($,.RADIAN.)
);
#560=(
NAMED_UNIT(*)
SI_UNIT($,.STERADIAN.)
SOLID_ANGLE_UNIT()
);
#561=SHAPE_DEFINITION_REPRESENTATION(#562,#563);
#562=PRODUCT_DEFINITION_SHAPE('',$,#565);
#563=SHAPE_REPRESENTATION('',(#361),#555);
#564=PRODUCT_DEFINITION_CONTEXT('part definition',#569,'design');
#565=PRODUCT_DEFINITION('WKZ-0110','E_3_01_06_06_00_WKZ-0110',#566,#564);
#566=PRODUCT_DEFINITION_FORMATION('',$,#571);
#567=PRODUCT_RELATED_PRODUCT_CATEGORY('E_3_01_06_06_00_WKZ-0110',
'E_3_01_06_06_00_WKZ-0110',(#571));
#568=APPLICATION_PROTOCOL_DEFINITION('international standard',
'automotive_design',2009,#569);
#569=APPLICATION_CONTEXT(
'Core Data for Automotive Mechanical Design Process');
#570=PRODUCT_CONTEXT('part definition',#569,'mechanical');
#571=PRODUCT('WKZ-0110','E_3_01_06_06_00_WKZ-0110',$,(#570));
#572=PRESENTATION_STYLE_ASSIGNMENT((#574));
#573=PRESENTATION_STYLE_ASSIGNMENT((#575));
#574=SURFACE_STYLE_USAGE(.BOTH.,#578);
#575=SURFACE_STYLE_USAGE(.BOTH.,#579);
#576=SURFACE_STYLE_RENDERING_WITH_PROPERTIES($,#586,(#577));
#577=SURFACE_STYLE_TRANSPARENT(0.);
#578=SURFACE_SIDE_STYLE('',(#580,#576));
#579=SURFACE_SIDE_STYLE('',(#581));
#580=SURFACE_STYLE_FILL_AREA(#582);
#581=SURFACE_STYLE_FILL_AREA(#583);
#582=FILL_AREA_STYLE('',(#584));
#583=FILL_AREA_STYLE('',(#585));
#584=FILL_AREA_STYLE_COLOUR('',#586);
#585=FILL_AREA_STYLE_COLOUR('',#587);
#586=COLOUR_RGB('',0.92156862745098,0.92156862745098,0.92156862745098);
#587=COLOUR_RGB('',0.16078431372549,0.16078431372549,0.16078431372549);
ENDSEC;
END-ISO-10303-21;
