ISO-10303-21;
HEADER;
/* Generated by software containing ST-Developer
 * from STEP Tools, Inc. (www.steptools.com) 
 */

FILE_DESCRIPTION(
/* description */ (''),
/* implementation_level */ '2;1');

FILE_NAME(
/* name */ 
'H:\\Eigene Dateien\\CAD Workspace Vault\\CAD\\E_3_Nocken\\E_3_01_Aufs
chwei\X\DFnocke\\04_T- Form, L-Form\\E_3_01_04_15_00_WKZ-0002.stp',
/* time_stamp */ '2024-06-07T11:44:18+02:00',
/* author */ ('DFischer'),
/* organization */ (''),
/* preprocessor_version */ 'ST-DEVELOPER v18.1',
/* originating_system */ 'Autodesk Inventor 2021',
/* authorisation */ '');

FILE_SCHEMA (('AUTOMOTIVE_DESIGN { 1 0 10303 214 3 1 1 }'));
ENDSEC;

DATA;
#10=MECHANICAL_DESIGN_GEOMETRIC_PRESENTATION_REPRESENTATION('',(#14,#15),
#322);
#11=SHAPE_REPRESENTATION_RELATIONSHIP('SRR','None',#329,#12);
#12=ADVANCED_BREP_SHAPE_REPRESENTATION('',(#13),#321);
#13=MANIFOLD_SOLID_BREP('Volumenk\X\F6rper1',#192);
#14=STYLED_ITEM('',(#339),#184);
#15=STYLED_ITEM('',(#338),#13);
#16=FACE_OUTER_BOUND('',#26,.T.);
#17=FACE_OUTER_BOUND('',#27,.T.);
#18=FACE_OUTER_BOUND('',#28,.T.);
#19=FACE_OUTER_BOUND('',#29,.T.);
#20=FACE_OUTER_BOUND('',#30,.T.);
#21=FACE_OUTER_BOUND('',#31,.T.);
#22=FACE_OUTER_BOUND('',#32,.T.);
#23=FACE_OUTER_BOUND('',#33,.T.);
#24=FACE_OUTER_BOUND('',#34,.T.);
#25=FACE_OUTER_BOUND('',#35,.T.);
#26=EDGE_LOOP('',(#124,#125,#126,#127,#128,#129,#130,#131));
#27=EDGE_LOOP('',(#132,#133,#134,#135));
#28=EDGE_LOOP('',(#136,#137,#138,#139));
#29=EDGE_LOOP('',(#140,#141,#142,#143));
#30=EDGE_LOOP('',(#144,#145,#146,#147));
#31=EDGE_LOOP('',(#148,#149,#150,#151));
#32=EDGE_LOOP('',(#152,#153,#154,#155));
#33=EDGE_LOOP('',(#156,#157,#158,#159));
#34=EDGE_LOOP('',(#160,#161,#162,#163));
#35=EDGE_LOOP('',(#164,#165,#166,#167,#168,#169,#170,#171));
#36=LINE('',#272,#60);
#37=LINE('',#274,#61);
#38=LINE('',#276,#62);
#39=LINE('',#278,#63);
#40=LINE('',#280,#64);
#41=LINE('',#282,#65);
#42=LINE('',#284,#66);
#43=LINE('',#285,#67);
#44=LINE('',#289,#68);
#45=LINE('',#290,#69);
#46=LINE('',#291,#70);
#47=LINE('',#294,#71);
#48=LINE('',#295,#72);
#49=LINE('',#298,#73);
#50=LINE('',#299,#74);
#51=LINE('',#302,#75);
#52=LINE('',#303,#76);
#53=LINE('',#306,#77);
#54=LINE('',#307,#78);
#55=LINE('',#310,#79);
#56=LINE('',#311,#80);
#57=LINE('',#314,#81);
#58=LINE('',#315,#82);
#59=LINE('',#317,#83);
#60=VECTOR('',#226,10.);
#61=VECTOR('',#227,10.);
#62=VECTOR('',#228,10.);
#63=VECTOR('',#229,10.);
#64=VECTOR('',#230,10.);
#65=VECTOR('',#231,10.);
#66=VECTOR('',#232,10.);
#67=VECTOR('',#233,10.);
#68=VECTOR('',#236,10.);
#69=VECTOR('',#237,10.);
#70=VECTOR('',#238,10.);
#71=VECTOR('',#241,10.);
#72=VECTOR('',#242,10.);
#73=VECTOR('',#245,10.);
#74=VECTOR('',#246,10.);
#75=VECTOR('',#249,10.);
#76=VECTOR('',#250,10.);
#77=VECTOR('',#253,10.);
#78=VECTOR('',#254,10.);
#79=VECTOR('',#257,10.);
#80=VECTOR('',#258,10.);
#81=VECTOR('',#261,10.);
#82=VECTOR('',#262,10.);
#83=VECTOR('',#265,10.);
#84=VERTEX_POINT('',#270);
#85=VERTEX_POINT('',#271);
#86=VERTEX_POINT('',#273);
#87=VERTEX_POINT('',#275);
#88=VERTEX_POINT('',#277);
#89=VERTEX_POINT('',#279);
#90=VERTEX_POINT('',#281);
#91=VERTEX_POINT('',#283);
#92=VERTEX_POINT('',#287);
#93=VERTEX_POINT('',#288);
#94=VERTEX_POINT('',#293);
#95=VERTEX_POINT('',#297);
#96=VERTEX_POINT('',#301);
#97=VERTEX_POINT('',#305);
#98=VERTEX_POINT('',#309);
#99=VERTEX_POINT('',#313);
#100=EDGE_CURVE('',#84,#85,#36,.T.);
#101=EDGE_CURVE('',#86,#84,#37,.T.);
#102=EDGE_CURVE('',#87,#86,#38,.T.);
#103=EDGE_CURVE('',#88,#87,#39,.T.);
#104=EDGE_CURVE('',#89,#88,#40,.T.);
#105=EDGE_CURVE('',#90,#89,#41,.T.);
#106=EDGE_CURVE('',#91,#90,#42,.T.);
#107=EDGE_CURVE('',#85,#91,#43,.T.);
#108=EDGE_CURVE('',#92,#93,#44,.T.);
#109=EDGE_CURVE('',#93,#87,#45,.T.);
#110=EDGE_CURVE('',#92,#86,#46,.T.);
#111=EDGE_CURVE('',#93,#94,#47,.T.);
#112=EDGE_CURVE('',#94,#88,#48,.T.);
#113=EDGE_CURVE('',#94,#95,#49,.T.);
#114=EDGE_CURVE('',#95,#89,#50,.T.);
#115=EDGE_CURVE('',#95,#96,#51,.T.);
#116=EDGE_CURVE('',#96,#90,#52,.T.);
#117=EDGE_CURVE('',#96,#97,#53,.T.);
#118=EDGE_CURVE('',#97,#91,#54,.T.);
#119=EDGE_CURVE('',#97,#98,#55,.T.);
#120=EDGE_CURVE('',#98,#85,#56,.T.);
#121=EDGE_CURVE('',#98,#99,#57,.T.);
#122=EDGE_CURVE('',#84,#99,#58,.T.);
#123=EDGE_CURVE('',#99,#92,#59,.T.);
#124=ORIENTED_EDGE('',*,*,#100,.F.);
#125=ORIENTED_EDGE('',*,*,#101,.F.);
#126=ORIENTED_EDGE('',*,*,#102,.F.);
#127=ORIENTED_EDGE('',*,*,#103,.F.);
#128=ORIENTED_EDGE('',*,*,#104,.F.);
#129=ORIENTED_EDGE('',*,*,#105,.F.);
#130=ORIENTED_EDGE('',*,*,#106,.F.);
#131=ORIENTED_EDGE('',*,*,#107,.F.);
#132=ORIENTED_EDGE('',*,*,#108,.T.);
#133=ORIENTED_EDGE('',*,*,#109,.T.);
#134=ORIENTED_EDGE('',*,*,#102,.T.);
#135=ORIENTED_EDGE('',*,*,#110,.F.);
#136=ORIENTED_EDGE('',*,*,#111,.T.);
#137=ORIENTED_EDGE('',*,*,#112,.T.);
#138=ORIENTED_EDGE('',*,*,#103,.T.);
#139=ORIENTED_EDGE('',*,*,#109,.F.);
#140=ORIENTED_EDGE('',*,*,#113,.T.);
#141=ORIENTED_EDGE('',*,*,#114,.T.);
#142=ORIENTED_EDGE('',*,*,#104,.T.);
#143=ORIENTED_EDGE('',*,*,#112,.F.);
#144=ORIENTED_EDGE('',*,*,#115,.T.);
#145=ORIENTED_EDGE('',*,*,#116,.T.);
#146=ORIENTED_EDGE('',*,*,#105,.T.);
#147=ORIENTED_EDGE('',*,*,#114,.F.);
#148=ORIENTED_EDGE('',*,*,#117,.T.);
#149=ORIENTED_EDGE('',*,*,#118,.T.);
#150=ORIENTED_EDGE('',*,*,#106,.T.);
#151=ORIENTED_EDGE('',*,*,#116,.F.);
#152=ORIENTED_EDGE('',*,*,#119,.T.);
#153=ORIENTED_EDGE('',*,*,#120,.T.);
#154=ORIENTED_EDGE('',*,*,#107,.T.);
#155=ORIENTED_EDGE('',*,*,#118,.F.);
#156=ORIENTED_EDGE('',*,*,#121,.T.);
#157=ORIENTED_EDGE('',*,*,#122,.F.);
#158=ORIENTED_EDGE('',*,*,#100,.T.);
#159=ORIENTED_EDGE('',*,*,#120,.F.);
#160=ORIENTED_EDGE('',*,*,#123,.T.);
#161=ORIENTED_EDGE('',*,*,#110,.T.);
#162=ORIENTED_EDGE('',*,*,#101,.T.);
#163=ORIENTED_EDGE('',*,*,#122,.T.);
#164=ORIENTED_EDGE('',*,*,#108,.F.);
#165=ORIENTED_EDGE('',*,*,#123,.F.);
#166=ORIENTED_EDGE('',*,*,#121,.F.);
#167=ORIENTED_EDGE('',*,*,#119,.F.);
#168=ORIENTED_EDGE('',*,*,#117,.F.);
#169=ORIENTED_EDGE('',*,*,#115,.F.);
#170=ORIENTED_EDGE('',*,*,#113,.F.);
#171=ORIENTED_EDGE('',*,*,#111,.F.);
#172=PLANE('',#212);
#173=PLANE('',#213);
#174=PLANE('',#214);
#175=PLANE('',#215);
#176=PLANE('',#216);
#177=PLANE('',#217);
#178=PLANE('',#218);
#179=PLANE('',#219);
#180=PLANE('',#220);
#181=PLANE('',#221);
#182=ADVANCED_FACE('',(#16),#172,.F.);
#183=ADVANCED_FACE('',(#17),#173,.T.);
#184=ADVANCED_FACE('',(#18),#174,.T.);
#185=ADVANCED_FACE('',(#19),#175,.T.);
#186=ADVANCED_FACE('',(#20),#176,.T.);
#187=ADVANCED_FACE('',(#21),#177,.T.);
#188=ADVANCED_FACE('',(#22),#178,.T.);
#189=ADVANCED_FACE('',(#23),#179,.T.);
#190=ADVANCED_FACE('',(#24),#180,.T.);
#191=ADVANCED_FACE('',(#25),#181,.T.);
#192=CLOSED_SHELL('',(#182,#183,#184,#185,#186,#187,#188,#189,#190,#191));
#193=DERIVED_UNIT_ELEMENT(#195,1.);
#194=DERIVED_UNIT_ELEMENT(#324,3.);
#195=(
MASS_UNIT()
NAMED_UNIT(*)
SI_UNIT($,.GRAM.)
);
#196=DERIVED_UNIT((#193,#194));
#197=MEASURE_REPRESENTATION_ITEM('density measure',
POSITIVE_RATIO_MEASURE(8.03),#196);
#198=PROPERTY_DEFINITION_REPRESENTATION(#203,#200);
#199=PROPERTY_DEFINITION_REPRESENTATION(#204,#201);
#200=REPRESENTATION('material name',(#202),#321);
#201=REPRESENTATION('density',(#197),#321);
#202=DESCRIPTIVE_REPRESENTATION_ITEM('1.4301','1.4301');
#203=PROPERTY_DEFINITION('material property','material name',#331);
#204=PROPERTY_DEFINITION('material property','density of part',#331);
#205=DATE_TIME_ROLE('creation_date');
#206=APPLIED_DATE_AND_TIME_ASSIGNMENT(#207,#205,(#331));
#207=DATE_AND_TIME(#208,#209);
#208=CALENDAR_DATE(2011,19,10);
#209=LOCAL_TIME(0,0,0.,#210);
#210=COORDINATED_UNIVERSAL_TIME_OFFSET(0,0,.BEHIND.);
#211=AXIS2_PLACEMENT_3D('placement',#268,#222,#223);
#212=AXIS2_PLACEMENT_3D('',#269,#224,#225);
#213=AXIS2_PLACEMENT_3D('',#286,#234,#235);
#214=AXIS2_PLACEMENT_3D('',#292,#239,#240);
#215=AXIS2_PLACEMENT_3D('',#296,#243,#244);
#216=AXIS2_PLACEMENT_3D('',#300,#247,#248);
#217=AXIS2_PLACEMENT_3D('',#304,#251,#252);
#218=AXIS2_PLACEMENT_3D('',#308,#255,#256);
#219=AXIS2_PLACEMENT_3D('',#312,#259,#260);
#220=AXIS2_PLACEMENT_3D('',#316,#263,#264);
#221=AXIS2_PLACEMENT_3D('',#318,#266,#267);
#222=DIRECTION('axis',(0.,0.,1.));
#223=DIRECTION('refdir',(1.,0.,0.));
#224=DIRECTION('center_axis',(0.,0.,1.));
#225=DIRECTION('ref_axis',(1.,0.,0.));
#226=DIRECTION('',(0.,1.,0.));
#227=DIRECTION('',(1.,-8.88178419700125E-16,0.));
#228=DIRECTION('',(0.,1.,0.));
#229=DIRECTION('',(1.,0.,0.));
#230=DIRECTION('',(0.,-1.,0.));
#231=DIRECTION('',(1.,1.11022302462516E-16,0.));
#232=DIRECTION('',(-2.3373116307898E-16,-1.,0.));
#233=DIRECTION('',(-1.,2.22044604925031E-17,0.));
#234=DIRECTION('center_axis',(1.,0.,0.));
#235=DIRECTION('ref_axis',(0.,0.,-1.));
#236=DIRECTION('',(0.,-1.,0.));
#237=DIRECTION('',(0.,0.,-1.));
#238=DIRECTION('',(0.,0.,-1.));
#239=DIRECTION('center_axis',(0.,-1.,0.));
#240=DIRECTION('ref_axis',(0.,0.,-1.));
#241=DIRECTION('',(-1.,0.,0.));
#242=DIRECTION('',(0.,0.,-1.));
#243=DIRECTION('center_axis',(-1.,0.,0.));
#244=DIRECTION('ref_axis',(0.,0.,1.));
#245=DIRECTION('',(0.,1.,0.));
#246=DIRECTION('',(0.,0.,-1.));
#247=DIRECTION('center_axis',(1.11022302462516E-16,-1.,0.));
#248=DIRECTION('ref_axis',(0.,0.,-1.));
#249=DIRECTION('',(-1.,-1.11022302462516E-16,0.));
#250=DIRECTION('',(0.,0.,-1.));
#251=DIRECTION('center_axis',(-1.,2.3373116307898E-16,0.));
#252=DIRECTION('ref_axis',(0.,0.,1.));
#253=DIRECTION('',(2.3373116307898E-16,1.,0.));
#254=DIRECTION('',(0.,0.,-1.));
#255=DIRECTION('center_axis',(2.22044604925031E-17,1.,0.));
#256=DIRECTION('ref_axis',(0.,0.,1.));
#257=DIRECTION('',(1.,-2.22044604925031E-17,0.));
#258=DIRECTION('',(0.,0.,-1.));
#259=DIRECTION('center_axis',(1.,0.,0.));
#260=DIRECTION('ref_axis',(0.,0.,-1.));
#261=DIRECTION('',(0.,-1.,0.));
#262=DIRECTION('',(0.,0.,1.));
#263=DIRECTION('center_axis',(-8.88178419700125E-16,-1.,0.));
#264=DIRECTION('ref_axis',(0.,0.,-1.));
#265=DIRECTION('',(-1.,8.88178419700125E-16,0.));
#266=DIRECTION('center_axis',(0.,0.,1.));
#267=DIRECTION('ref_axis',(1.,0.,0.));
#268=CARTESIAN_POINT('',(0.,0.,0.));
#269=CARTESIAN_POINT('Origin',(1.11022302462516E-15,-1.63775510204082,-1.));
#270=CARTESIAN_POINT('',(25.,-9.5,-1.));
#271=CARTESIAN_POINT('',(25.,9.5,-1.));
#272=CARTESIAN_POINT('',(25.,9.5,-1.));
#273=CARTESIAN_POINT('',(15.,-9.49999999999999,-1.));
#274=CARTESIAN_POINT('',(25.,-9.5,-1.));
#275=CARTESIAN_POINT('',(15.,-14.,-1.));
#276=CARTESIAN_POINT('',(15.,-9.49999999999999,-1.));
#277=CARTESIAN_POINT('',(-15.,-14.,-1.));
#278=CARTESIAN_POINT('',(15.,-14.,-1.));
#279=CARTESIAN_POINT('',(-15.,-9.49999999999999,-1.));
#280=CARTESIAN_POINT('',(-15.,-14.,-1.));
#281=CARTESIAN_POINT('',(-25.,-9.5,-1.));
#282=CARTESIAN_POINT('',(-15.,-9.49999999999999,-1.));
#283=CARTESIAN_POINT('',(-25.,9.50000000000001,-1.));
#284=CARTESIAN_POINT('',(-25.,-9.5,-1.));
#285=CARTESIAN_POINT('',(-25.,9.50000000000001,-1.));
#286=CARTESIAN_POINT('Origin',(15.,-9.49999999999999,0.));
#287=CARTESIAN_POINT('',(15.,-9.49999999999999,1.));
#288=CARTESIAN_POINT('',(15.,-14.,1.));
#289=CARTESIAN_POINT('',(15.,-9.49999999999999,1.));
#290=CARTESIAN_POINT('',(15.,-14.,0.));
#291=CARTESIAN_POINT('',(15.,-9.49999999999999,0.));
#292=CARTESIAN_POINT('Origin',(15.,-14.,0.));
#293=CARTESIAN_POINT('',(-15.,-14.,1.));
#294=CARTESIAN_POINT('',(15.,-14.,1.));
#295=CARTESIAN_POINT('',(-15.,-14.,0.));
#296=CARTESIAN_POINT('Origin',(-15.,-14.,0.));
#297=CARTESIAN_POINT('',(-15.,-9.49999999999999,1.));
#298=CARTESIAN_POINT('',(-15.,-14.,1.));
#299=CARTESIAN_POINT('',(-15.,-9.49999999999999,0.));
#300=CARTESIAN_POINT('Origin',(-15.,-9.49999999999999,0.));
#301=CARTESIAN_POINT('',(-25.,-9.5,1.));
#302=CARTESIAN_POINT('',(-15.,-9.49999999999999,1.));
#303=CARTESIAN_POINT('',(-25.,-9.5,0.));
#304=CARTESIAN_POINT('Origin',(-25.,-9.5,0.));
#305=CARTESIAN_POINT('',(-25.,9.50000000000001,1.));
#306=CARTESIAN_POINT('',(-25.,-9.5,1.));
#307=CARTESIAN_POINT('',(-25.,9.50000000000001,0.));
#308=CARTESIAN_POINT('Origin',(-25.,9.50000000000001,0.));
#309=CARTESIAN_POINT('',(25.,9.5,1.));
#310=CARTESIAN_POINT('',(-25.,9.50000000000001,1.));
#311=CARTESIAN_POINT('',(25.,9.5,0.));
#312=CARTESIAN_POINT('Origin',(25.,9.5,0.));
#313=CARTESIAN_POINT('',(25.,-9.5,1.));
#314=CARTESIAN_POINT('',(25.,9.5,1.));
#315=CARTESIAN_POINT('',(25.,-9.5,0.));
#316=CARTESIAN_POINT('Origin',(25.,-9.5,0.));
#317=CARTESIAN_POINT('',(25.,-9.5,1.));
#318=CARTESIAN_POINT('Origin',(1.17961196366423E-15,-1.63775510204082,1.));
#319=UNCERTAINTY_MEASURE_WITH_UNIT(LENGTH_MEASURE(0.01),#323,
'DISTANCE_ACCURACY_VALUE',
'Maximum model space distance between geometric entities at asserted c
onnectivities');
#320=UNCERTAINTY_MEASURE_WITH_UNIT(LENGTH_MEASURE(0.01),#323,
'DISTANCE_ACCURACY_VALUE',
'Maximum model space distance between geometric entities at asserted c
onnectivities');
#321=(
GEOMETRIC_REPRESENTATION_CONTEXT(3)
GLOBAL_UNCERTAINTY_ASSIGNED_CONTEXT((#319))
GLOBAL_UNIT_ASSIGNED_CONTEXT((#323,#325,#326))
REPRESENTATION_CONTEXT('','3D')
);
#322=(
GEOMETRIC_REPRESENTATION_CONTEXT(3)
GLOBAL_UNCERTAINTY_ASSIGNED_CONTEXT((#320))
GLOBAL_UNIT_ASSIGNED_CONTEXT((#323,#325,#326))
REPRESENTATION_CONTEXT('','3D')
);
#323=(
LENGTH_UNIT()
NAMED_UNIT(*)
SI_UNIT(.MILLI.,.METRE.)
);
#324=(
LENGTH_UNIT()
NAMED_UNIT(*)
SI_UNIT(.CENTI.,.METRE.)
);
#325=(
NAMED_UNIT(*)
PLANE_ANGLE_UNIT()
SI_UNIT($,.RADIAN.)
);
#326=(
NAMED_UNIT(*)
SI_UNIT($,.STERADIAN.)
SOLID_ANGLE_UNIT()
);
#327=SHAPE_DEFINITION_REPRESENTATION(#328,#329);
#328=PRODUCT_DEFINITION_SHAPE('',$,#331);
#329=SHAPE_REPRESENTATION('',(#211),#321);
#330=PRODUCT_DEFINITION_CONTEXT('part definition',#335,'design');
#331=PRODUCT_DEFINITION('WKZ-0002','E_3_01_04_15_00_WKZ-0002',#332,#330);
#332=PRODUCT_DEFINITION_FORMATION('',$,#337);
#333=PRODUCT_RELATED_PRODUCT_CATEGORY('E_3_01_04_15_00_WKZ-0002',
'E_3_01_04_15_00_WKZ-0002',(#337));
#334=APPLICATION_PROTOCOL_DEFINITION('international standard',
'automotive_design',2009,#335);
#335=APPLICATION_CONTEXT(
'Core Data for Automotive Mechanical Design Process');
#336=PRODUCT_CONTEXT('part definition',#335,'mechanical');
#337=PRODUCT('WKZ-0002','E_3_01_04_15_00_WKZ-0002',$,(#336));
#338=PRESENTATION_STYLE_ASSIGNMENT((#340));
#339=PRESENTATION_STYLE_ASSIGNMENT((#341));
#340=SURFACE_STYLE_USAGE(.BOTH.,#344);
#341=SURFACE_STYLE_USAGE(.BOTH.,#345);
#342=SURFACE_STYLE_RENDERING_WITH_PROPERTIES($,#352,(#343));
#343=SURFACE_STYLE_TRANSPARENT(0.);
#344=SURFACE_SIDE_STYLE('',(#346,#342));
#345=SURFACE_SIDE_STYLE('',(#347));
#346=SURFACE_STYLE_FILL_AREA(#348);
#347=SURFACE_STYLE_FILL_AREA(#349);
#348=FILL_AREA_STYLE('',(#350));
#349=FILL_AREA_STYLE('',(#351));
#350=FILL_AREA_STYLE_COLOUR('',#352);
#351=FILL_AREA_STYLE_COLOUR('',#353);
#352=COLOUR_RGB('',0.92156862745098,0.92156862745098,0.92156862745098);
#353=COLOUR_RGB('',0.16078431372549,0.16078431372549,0.16078431372549);
ENDSEC;
END-ISO-10303-21;
