ISO-10303-21;
HEADER;
/* Generated by software containing ST-Developer
 * from STEP Tools, Inc. (www.steptools.com) 
 */

FILE_DESCRIPTION(
/* description */ (''),
/* implementation_level */ '2;1');

FILE_NAME(
/* name */ 'E_3_01_03_00_00_WKZ-0044.stp',
/* time_stamp */ '2025-11-24T10:27:03+01:00',
/* author */ ('d.fischer'),
/* organization */ (''),
/* preprocessor_version */ 'ST-DEVELOPER v20',
/* originating_system */ 'Autodesk Inventor 2025',
/* authorisation */ '');

FILE_SCHEMA (('AUTOMOTIVE_DESIGN { 1 0 10303 214 3 1 1 }'));
ENDSEC;

DATA;
#10=MECHANICAL_DESIGN_GEOMETRIC_PRESENTATION_REPRESENTATION('',(#27,#28),
#549);
#11=SHAPE_REPRESENTATION_RELATIONSHIP('SRR','None',#556,#12);
#12=ADVANCED_BREP_SHAPE_REPRESENTATION('',(#13),#548);
#13=MANIFOLD_SOLID_BREP('Volumenk\X\F6rper1',#292);
#14=TOROIDAL_SURFACE('',#327,3.5,1.5);
#15=TOROIDAL_SURFACE('',#332,2.49999999999999,1.5);
#16=TOROIDAL_SURFACE('',#337,2.5,1.5);
#17=TOROIDAL_SURFACE('',#342,2.50000000000001,1.5);
#18=TOROIDAL_SURFACE('',#347,2.50000000000001,1.5);
#19=TOROIDAL_SURFACE('',#352,3.50000000000001,1.5);
#20=CYLINDRICAL_SURFACE('',#325,1.5);
#21=CYLINDRICAL_SURFACE('',#330,1.5);
#22=CYLINDRICAL_SURFACE('',#335,1.5);
#23=CYLINDRICAL_SURFACE('',#340,1.5);
#24=CYLINDRICAL_SURFACE('',#345,1.5);
#25=CYLINDRICAL_SURFACE('',#350,1.5);
#26=CYLINDRICAL_SURFACE('',#355,1.5);
#27=STYLED_ITEM('',(#566),#277);
#28=STYLED_ITEM('',(#565),#13);
#29=FACE_OUTER_BOUND('',#45,.T.);
#30=FACE_OUTER_BOUND('',#46,.T.);
#31=FACE_OUTER_BOUND('',#47,.T.);
#32=FACE_OUTER_BOUND('',#48,.T.);
#33=FACE_OUTER_BOUND('',#49,.T.);
#34=FACE_OUTER_BOUND('',#50,.T.);
#35=FACE_OUTER_BOUND('',#51,.T.);
#36=FACE_OUTER_BOUND('',#52,.T.);
#37=FACE_OUTER_BOUND('',#53,.T.);
#38=FACE_OUTER_BOUND('',#54,.T.);
#39=FACE_OUTER_BOUND('',#55,.T.);
#40=FACE_OUTER_BOUND('',#56,.T.);
#41=FACE_OUTER_BOUND('',#57,.T.);
#42=FACE_OUTER_BOUND('',#58,.T.);
#43=FACE_OUTER_BOUND('',#59,.T.);
#44=FACE_OUTER_BOUND('',#60,.T.);
#45=EDGE_LOOP('',(#189,#190,#191,#192,#193,#194,#195,#196,#197,#198,#199,
#200,#201,#202));
#46=EDGE_LOOP('',(#203,#204,#205,#206));
#47=EDGE_LOOP('',(#207,#208,#209,#210));
#48=EDGE_LOOP('',(#211,#212,#213,#214));
#49=EDGE_LOOP('',(#215,#216,#217,#218));
#50=EDGE_LOOP('',(#219,#220,#221,#222));
#51=EDGE_LOOP('',(#223,#224,#225,#226));
#52=EDGE_LOOP('',(#227,#228,#229,#230));
#53=EDGE_LOOP('',(#231,#232,#233,#234));
#54=EDGE_LOOP('',(#235,#236,#237,#238));
#55=EDGE_LOOP('',(#239,#240,#241,#242));
#56=EDGE_LOOP('',(#243,#244,#245,#246));
#57=EDGE_LOOP('',(#247,#248,#249,#250));
#58=EDGE_LOOP('',(#251,#252,#253,#254));
#59=EDGE_LOOP('',(#255,#256,#257,#258));
#60=EDGE_LOOP('',(#259,#260,#261,#262,#263,#264,#265,#266,#267,#268,#269,
#270,#271,#272));
#61=CIRCLE('',#316,3.5);
#62=CIRCLE('',#317,2.49999999999999);
#63=CIRCLE('',#318,2.5);
#64=CIRCLE('',#319,2.50000000000001);
#65=CIRCLE('',#320,2.50000000000001);
#66=CIRCLE('',#321,3.50000000000001);
#67=CIRCLE('',#323,1.5);
#68=CIRCLE('',#324,1.5);
#69=CIRCLE('',#326,1.5);
#70=CIRCLE('',#328,1.5);
#71=CIRCLE('',#329,3.5);
#72=CIRCLE('',#331,1.5);
#73=CIRCLE('',#333,1.5);
#74=CIRCLE('',#334,2.49999999999999);
#75=CIRCLE('',#336,1.5);
#76=CIRCLE('',#338,1.5);
#77=CIRCLE('',#339,2.5);
#78=CIRCLE('',#341,1.5);
#79=CIRCLE('',#343,1.5);
#80=CIRCLE('',#344,2.50000000000001);
#81=CIRCLE('',#346,1.5);
#82=CIRCLE('',#348,1.5);
#83=CIRCLE('',#349,2.50000000000001);
#84=CIRCLE('',#351,1.5);
#85=CIRCLE('',#353,1.5);
#86=CIRCLE('',#354,3.50000000000001);
#87=LINE('',#463,#103);
#88=LINE('',#467,#104);
#89=LINE('',#471,#105);
#90=LINE('',#475,#106);
#91=LINE('',#479,#107);
#92=LINE('',#483,#108);
#93=LINE('',#487,#109);
#94=LINE('',#488,#110);
#95=LINE('',#494,#111);
#96=LINE('',#497,#112);
#97=LINE('',#506,#113);
#98=LINE('',#514,#114);
#99=LINE('',#522,#115);
#100=LINE('',#530,#116);
#101=LINE('',#538,#117);
#102=LINE('',#544,#118);
#103=VECTOR('',#361,10.);
#104=VECTOR('',#364,10.);
#105=VECTOR('',#367,10.);
#106=VECTOR('',#370,10.);
#107=VECTOR('',#373,10.);
#108=VECTOR('',#376,10.);
#109=VECTOR('',#379,10.);
#110=VECTOR('',#380,10.);
#111=VECTOR('',#387,10.);
#112=VECTOR('',#390,10.);
#113=VECTOR('',#403,10.);
#114=VECTOR('',#414,10.);
#115=VECTOR('',#425,10.);
#116=VECTOR('',#436,10.);
#117=VECTOR('',#447,10.);
#118=VECTOR('',#456,10.);
#119=VERTEX_POINT('',#461);
#120=VERTEX_POINT('',#462);
#121=VERTEX_POINT('',#464);
#122=VERTEX_POINT('',#466);
#123=VERTEX_POINT('',#468);
#124=VERTEX_POINT('',#470);
#125=VERTEX_POINT('',#472);
#126=VERTEX_POINT('',#474);
#127=VERTEX_POINT('',#476);
#128=VERTEX_POINT('',#478);
#129=VERTEX_POINT('',#480);
#130=VERTEX_POINT('',#482);
#131=VERTEX_POINT('',#484);
#132=VERTEX_POINT('',#486);
#133=VERTEX_POINT('',#490);
#134=VERTEX_POINT('',#492);
#135=VERTEX_POINT('',#496);
#136=VERTEX_POINT('',#500);
#137=VERTEX_POINT('',#504);
#138=VERTEX_POINT('',#508);
#139=VERTEX_POINT('',#512);
#140=VERTEX_POINT('',#516);
#141=VERTEX_POINT('',#520);
#142=VERTEX_POINT('',#524);
#143=VERTEX_POINT('',#528);
#144=VERTEX_POINT('',#532);
#145=VERTEX_POINT('',#536);
#146=VERTEX_POINT('',#540);
#147=EDGE_CURVE('',#119,#120,#87,.T.);
#148=EDGE_CURVE('',#121,#119,#61,.T.);
#149=EDGE_CURVE('',#122,#121,#88,.T.);
#150=EDGE_CURVE('',#123,#122,#62,.T.);
#151=EDGE_CURVE('',#124,#123,#89,.T.);
#152=EDGE_CURVE('',#125,#124,#63,.T.);
#153=EDGE_CURVE('',#126,#125,#90,.T.);
#154=EDGE_CURVE('',#127,#126,#64,.T.);
#155=EDGE_CURVE('',#128,#127,#91,.T.);
#156=EDGE_CURVE('',#129,#128,#65,.T.);
#157=EDGE_CURVE('',#130,#129,#92,.T.);
#158=EDGE_CURVE('',#131,#130,#66,.T.);
#159=EDGE_CURVE('',#132,#131,#93,.T.);
#160=EDGE_CURVE('',#120,#132,#94,.T.);
#161=EDGE_CURVE('',#120,#133,#67,.T.);
#162=EDGE_CURVE('',#134,#132,#68,.T.);
#163=EDGE_CURVE('',#134,#133,#95,.T.);
#164=EDGE_CURVE('',#133,#135,#96,.T.);
#165=EDGE_CURVE('',#135,#119,#69,.T.);
#166=EDGE_CURVE('',#136,#121,#70,.T.);
#167=EDGE_CURVE('',#135,#136,#71,.T.);
#168=EDGE_CURVE('',#137,#122,#72,.T.);
#169=EDGE_CURVE('',#136,#137,#97,.T.);
#170=EDGE_CURVE('',#138,#123,#73,.T.);
#171=EDGE_CURVE('',#137,#138,#74,.T.);
#172=EDGE_CURVE('',#139,#124,#75,.T.);
#173=EDGE_CURVE('',#138,#139,#98,.T.);
#174=EDGE_CURVE('',#140,#125,#76,.T.);
#175=EDGE_CURVE('',#139,#140,#77,.T.);
#176=EDGE_CURVE('',#141,#126,#78,.T.);
#177=EDGE_CURVE('',#140,#141,#99,.T.);
#178=EDGE_CURVE('',#142,#127,#79,.T.);
#179=EDGE_CURVE('',#141,#142,#80,.T.);
#180=EDGE_CURVE('',#143,#128,#81,.T.);
#181=EDGE_CURVE('',#142,#143,#100,.T.);
#182=EDGE_CURVE('',#144,#129,#82,.T.);
#183=EDGE_CURVE('',#143,#144,#83,.T.);
#184=EDGE_CURVE('',#145,#130,#84,.T.);
#185=EDGE_CURVE('',#144,#145,#101,.T.);
#186=EDGE_CURVE('',#146,#131,#85,.T.);
#187=EDGE_CURVE('',#145,#146,#86,.T.);
#188=EDGE_CURVE('',#146,#134,#102,.T.);
#189=ORIENTED_EDGE('',*,*,#147,.F.);
#190=ORIENTED_EDGE('',*,*,#148,.F.);
#191=ORIENTED_EDGE('',*,*,#149,.F.);
#192=ORIENTED_EDGE('',*,*,#150,.F.);
#193=ORIENTED_EDGE('',*,*,#151,.F.);
#194=ORIENTED_EDGE('',*,*,#152,.F.);
#195=ORIENTED_EDGE('',*,*,#153,.F.);
#196=ORIENTED_EDGE('',*,*,#154,.F.);
#197=ORIENTED_EDGE('',*,*,#155,.F.);
#198=ORIENTED_EDGE('',*,*,#156,.F.);
#199=ORIENTED_EDGE('',*,*,#157,.F.);
#200=ORIENTED_EDGE('',*,*,#158,.F.);
#201=ORIENTED_EDGE('',*,*,#159,.F.);
#202=ORIENTED_EDGE('',*,*,#160,.F.);
#203=ORIENTED_EDGE('',*,*,#161,.F.);
#204=ORIENTED_EDGE('',*,*,#160,.T.);
#205=ORIENTED_EDGE('',*,*,#162,.F.);
#206=ORIENTED_EDGE('',*,*,#163,.T.);
#207=ORIENTED_EDGE('',*,*,#161,.T.);
#208=ORIENTED_EDGE('',*,*,#164,.T.);
#209=ORIENTED_EDGE('',*,*,#165,.T.);
#210=ORIENTED_EDGE('',*,*,#147,.T.);
#211=ORIENTED_EDGE('',*,*,#166,.T.);
#212=ORIENTED_EDGE('',*,*,#148,.T.);
#213=ORIENTED_EDGE('',*,*,#165,.F.);
#214=ORIENTED_EDGE('',*,*,#167,.T.);
#215=ORIENTED_EDGE('',*,*,#168,.T.);
#216=ORIENTED_EDGE('',*,*,#149,.T.);
#217=ORIENTED_EDGE('',*,*,#166,.F.);
#218=ORIENTED_EDGE('',*,*,#169,.T.);
#219=ORIENTED_EDGE('',*,*,#170,.T.);
#220=ORIENTED_EDGE('',*,*,#150,.T.);
#221=ORIENTED_EDGE('',*,*,#168,.F.);
#222=ORIENTED_EDGE('',*,*,#171,.T.);
#223=ORIENTED_EDGE('',*,*,#172,.T.);
#224=ORIENTED_EDGE('',*,*,#151,.T.);
#225=ORIENTED_EDGE('',*,*,#170,.F.);
#226=ORIENTED_EDGE('',*,*,#173,.T.);
#227=ORIENTED_EDGE('',*,*,#174,.T.);
#228=ORIENTED_EDGE('',*,*,#152,.T.);
#229=ORIENTED_EDGE('',*,*,#172,.F.);
#230=ORIENTED_EDGE('',*,*,#175,.T.);
#231=ORIENTED_EDGE('',*,*,#176,.T.);
#232=ORIENTED_EDGE('',*,*,#153,.T.);
#233=ORIENTED_EDGE('',*,*,#174,.F.);
#234=ORIENTED_EDGE('',*,*,#177,.T.);
#235=ORIENTED_EDGE('',*,*,#178,.T.);
#236=ORIENTED_EDGE('',*,*,#154,.T.);
#237=ORIENTED_EDGE('',*,*,#176,.F.);
#238=ORIENTED_EDGE('',*,*,#179,.T.);
#239=ORIENTED_EDGE('',*,*,#180,.T.);
#240=ORIENTED_EDGE('',*,*,#155,.T.);
#241=ORIENTED_EDGE('',*,*,#178,.F.);
#242=ORIENTED_EDGE('',*,*,#181,.T.);
#243=ORIENTED_EDGE('',*,*,#182,.T.);
#244=ORIENTED_EDGE('',*,*,#156,.T.);
#245=ORIENTED_EDGE('',*,*,#180,.F.);
#246=ORIENTED_EDGE('',*,*,#183,.T.);
#247=ORIENTED_EDGE('',*,*,#184,.T.);
#248=ORIENTED_EDGE('',*,*,#157,.T.);
#249=ORIENTED_EDGE('',*,*,#182,.F.);
#250=ORIENTED_EDGE('',*,*,#185,.T.);
#251=ORIENTED_EDGE('',*,*,#186,.T.);
#252=ORIENTED_EDGE('',*,*,#158,.T.);
#253=ORIENTED_EDGE('',*,*,#184,.F.);
#254=ORIENTED_EDGE('',*,*,#187,.T.);
#255=ORIENTED_EDGE('',*,*,#162,.T.);
#256=ORIENTED_EDGE('',*,*,#159,.T.);
#257=ORIENTED_EDGE('',*,*,#186,.F.);
#258=ORIENTED_EDGE('',*,*,#188,.T.);
#259=ORIENTED_EDGE('',*,*,#164,.F.);
#260=ORIENTED_EDGE('',*,*,#163,.F.);
#261=ORIENTED_EDGE('',*,*,#188,.F.);
#262=ORIENTED_EDGE('',*,*,#187,.F.);
#263=ORIENTED_EDGE('',*,*,#185,.F.);
#264=ORIENTED_EDGE('',*,*,#183,.F.);
#265=ORIENTED_EDGE('',*,*,#181,.F.);
#266=ORIENTED_EDGE('',*,*,#179,.F.);
#267=ORIENTED_EDGE('',*,*,#177,.F.);
#268=ORIENTED_EDGE('',*,*,#175,.F.);
#269=ORIENTED_EDGE('',*,*,#173,.F.);
#270=ORIENTED_EDGE('',*,*,#171,.F.);
#271=ORIENTED_EDGE('',*,*,#169,.F.);
#272=ORIENTED_EDGE('',*,*,#167,.F.);
#273=PLANE('',#315);
#274=PLANE('',#322);
#275=PLANE('',#356);
#276=ADVANCED_FACE('',(#29),#273,.F.);
#277=ADVANCED_FACE('',(#30),#274,.T.);
#278=ADVANCED_FACE('',(#31),#20,.T.);
#279=ADVANCED_FACE('',(#32),#14,.T.);
#280=ADVANCED_FACE('',(#33),#21,.T.);
#281=ADVANCED_FACE('',(#34),#15,.T.);
#282=ADVANCED_FACE('',(#35),#22,.T.);
#283=ADVANCED_FACE('',(#36),#16,.T.);
#284=ADVANCED_FACE('',(#37),#23,.T.);
#285=ADVANCED_FACE('',(#38),#17,.T.);
#286=ADVANCED_FACE('',(#39),#24,.T.);
#287=ADVANCED_FACE('',(#40),#18,.T.);
#288=ADVANCED_FACE('',(#41),#25,.T.);
#289=ADVANCED_FACE('',(#42),#19,.T.);
#290=ADVANCED_FACE('',(#43),#26,.T.);
#291=ADVANCED_FACE('',(#44),#275,.T.);
#292=CLOSED_SHELL('',(#276,#277,#278,#279,#280,#281,#282,#283,#284,#285,
#286,#287,#288,#289,#290,#291));
#293=DERIVED_UNIT_ELEMENT(#296,1.);
#294=DERIVED_UNIT_ELEMENT(#551,-3.);
#295=DIMENSIONAL_EXPONENTS(0.,1.,0.,0.,0.,0.,0.);
#296=(
CONVERSION_BASED_UNIT('gram',#298)
MASS_UNIT()
NAMED_UNIT(#295)
);
#297=(
MASS_UNIT()
NAMED_UNIT(*)
SI_UNIT(.KILO.,.GRAM.)
);
#298=MASS_MEASURE_WITH_UNIT(MASS_MEASURE(0.001),#297);
#299=DERIVED_UNIT((#293,#294));
#300=MEASURE_REPRESENTATION_ITEM('density measure',
POSITIVE_RATIO_MEASURE(8.03),#299);
#301=PROPERTY_DEFINITION_REPRESENTATION(#306,#303);
#302=PROPERTY_DEFINITION_REPRESENTATION(#307,#304);
#303=REPRESENTATION('material name',(#305),#548);
#304=REPRESENTATION('density',(#300),#548);
#305=DESCRIPTIVE_REPRESENTATION_ITEM('1.4301','1.4301');
#306=PROPERTY_DEFINITION('material property','material name',#558);
#307=PROPERTY_DEFINITION('material property','density of part',#558);
#308=DATE_TIME_ROLE('creation_date');
#309=APPLIED_DATE_AND_TIME_ASSIGNMENT(#310,#308,(#558));
#310=DATE_AND_TIME(#311,#312);
#311=CALENDAR_DATE(2011,19,10);
#312=LOCAL_TIME(0,0,0.,#313);
#313=COORDINATED_UNIVERSAL_TIME_OFFSET(0,0,.BEHIND.);
#314=AXIS2_PLACEMENT_3D('',#459,#357,#358);
#315=AXIS2_PLACEMENT_3D('',#460,#359,#360);
#316=AXIS2_PLACEMENT_3D('',#465,#362,#363);
#317=AXIS2_PLACEMENT_3D('',#469,#365,#366);
#318=AXIS2_PLACEMENT_3D('',#473,#368,#369);
#319=AXIS2_PLACEMENT_3D('',#477,#371,#372);
#320=AXIS2_PLACEMENT_3D('',#481,#374,#375);
#321=AXIS2_PLACEMENT_3D('',#485,#377,#378);
#322=AXIS2_PLACEMENT_3D('',#489,#381,#382);
#323=AXIS2_PLACEMENT_3D('',#491,#383,#384);
#324=AXIS2_PLACEMENT_3D('',#493,#385,#386);
#325=AXIS2_PLACEMENT_3D('',#495,#388,#389);
#326=AXIS2_PLACEMENT_3D('',#498,#391,#392);
#327=AXIS2_PLACEMENT_3D('',#499,#393,#394);
#328=AXIS2_PLACEMENT_3D('',#501,#395,#396);
#329=AXIS2_PLACEMENT_3D('',#502,#397,#398);
#330=AXIS2_PLACEMENT_3D('',#503,#399,#400);
#331=AXIS2_PLACEMENT_3D('',#505,#401,#402);
#332=AXIS2_PLACEMENT_3D('',#507,#404,#405);
#333=AXIS2_PLACEMENT_3D('',#509,#406,#407);
#334=AXIS2_PLACEMENT_3D('',#510,#408,#409);
#335=AXIS2_PLACEMENT_3D('',#511,#410,#411);
#336=AXIS2_PLACEMENT_3D('',#513,#412,#413);
#337=AXIS2_PLACEMENT_3D('',#515,#415,#416);
#338=AXIS2_PLACEMENT_3D('',#517,#417,#418);
#339=AXIS2_PLACEMENT_3D('',#518,#419,#420);
#340=AXIS2_PLACEMENT_3D('',#519,#421,#422);
#341=AXIS2_PLACEMENT_3D('',#521,#423,#424);
#342=AXIS2_PLACEMENT_3D('',#523,#426,#427);
#343=AXIS2_PLACEMENT_3D('',#525,#428,#429);
#344=AXIS2_PLACEMENT_3D('',#526,#430,#431);
#345=AXIS2_PLACEMENT_3D('',#527,#432,#433);
#346=AXIS2_PLACEMENT_3D('',#529,#434,#435);
#347=AXIS2_PLACEMENT_3D('',#531,#437,#438);
#348=AXIS2_PLACEMENT_3D('',#533,#439,#440);
#349=AXIS2_PLACEMENT_3D('',#534,#441,#442);
#350=AXIS2_PLACEMENT_3D('',#535,#443,#444);
#351=AXIS2_PLACEMENT_3D('',#537,#445,#446);
#352=AXIS2_PLACEMENT_3D('',#539,#448,#449);
#353=AXIS2_PLACEMENT_3D('',#541,#450,#451);
#354=AXIS2_PLACEMENT_3D('',#542,#452,#453);
#355=AXIS2_PLACEMENT_3D('',#543,#454,#455);
#356=AXIS2_PLACEMENT_3D('',#545,#457,#458);
#357=DIRECTION('axis',(0.,0.,1.));
#358=DIRECTION('refdir',(1.,0.,0.));
#359=DIRECTION('center_axis',(0.,0.,1.));
#360=DIRECTION('ref_axis',(1.,0.,0.));
#361=DIRECTION('',(-5.55111512312578E-16,-1.,0.));
#362=DIRECTION('center_axis',(0.,0.,-1.));
#363=DIRECTION('ref_axis',(0.70710678118655,0.707106781186545,0.));
#364=DIRECTION('',(1.,-5.92118946466739E-15,0.));
#365=DIRECTION('center_axis',(0.,0.,1.));
#366=DIRECTION('ref_axis',(-0.707106781186548,-0.707106781186547,0.));
#367=DIRECTION('',(-4.15036644719685E-17,-1.,0.));
#368=DIRECTION('center_axis',(0.,0.,1.));
#369=DIRECTION('ref_axis',(-0.707106781186549,0.707106781186546,0.));
#370=DIRECTION('',(-1.,0.,0.));
#371=DIRECTION('center_axis',(0.,0.,1.));
#372=DIRECTION('ref_axis',(0.707106781186548,0.707106781186547,0.));
#373=DIRECTION('',(0.,1.,0.));
#374=DIRECTION('center_axis',(0.,0.,1.));
#375=DIRECTION('ref_axis',(0.707106781186549,-0.707106781186546,0.));
#376=DIRECTION('',(1.,5.92118946466744E-15,0.));
#377=DIRECTION('center_axis',(0.,0.,-1.));
#378=DIRECTION('ref_axis',(-0.707106781186548,0.707106781186547,0.));
#379=DIRECTION('',(0.,1.,0.));
#380=DIRECTION('',(1.,0.,0.));
#381=DIRECTION('center_axis',(0.,-1.,0.));
#382=DIRECTION('ref_axis',(0.,0.,-1.));
#383=DIRECTION('center_axis',(0.,1.,0.));
#384=DIRECTION('ref_axis',(-0.707106781186547,0.,0.707106781186548));
#385=DIRECTION('center_axis',(0.,1.,0.));
#386=DIRECTION('ref_axis',(0.707106781186547,0.,-0.707106781186548));
#387=DIRECTION('',(-1.,0.,0.));
#388=DIRECTION('center_axis',(5.55111512312578E-16,1.,0.));
#389=DIRECTION('ref_axis',(-0.707106781186547,0.,0.707106781186548));
#390=DIRECTION('',(5.55111512312578E-16,1.,0.));
#391=DIRECTION('center_axis',(0.,-1.,0.));
#392=DIRECTION('ref_axis',(0.,0.,1.));
#393=DIRECTION('center_axis',(0.,0.,1.));
#394=DIRECTION('ref_axis',(1.,0.,0.));
#395=DIRECTION('center_axis',(1.,-7.40148683083436E-15,0.));
#396=DIRECTION('ref_axis',(0.,0.,1.));
#397=DIRECTION('center_axis',(0.,0.,1.));
#398=DIRECTION('ref_axis',(0.70710678118655,0.707106781186545,0.));
#399=DIRECTION('center_axis',(-1.,5.92118946466739E-15,0.));
#400=DIRECTION('ref_axis',(-4.18691322315673E-15,-0.707106781186548,0.707106781186547));
#401=DIRECTION('center_axis',(1.,-5.92118946466749E-15,0.));
#402=DIRECTION('ref_axis',(0.,0.,1.));
#403=DIRECTION('',(-1.,5.92118946466739E-15,0.));
#404=DIRECTION('center_axis',(0.,0.,-1.));
#405=DIRECTION('ref_axis',(-1.,0.,0.));
#406=DIRECTION('center_axis',(0.,-1.,0.));
#407=DIRECTION('ref_axis',(0.,0.,1.));
#408=DIRECTION('center_axis',(0.,0.,-1.));
#409=DIRECTION('ref_axis',(-0.707106781186548,-0.707106781186547,0.));
#410=DIRECTION('center_axis',(4.15036644719685E-17,1.,0.));
#411=DIRECTION('ref_axis',(-0.707106781186548,0.,0.707106781186547));
#412=DIRECTION('center_axis',(0.,-1.,0.));
#413=DIRECTION('ref_axis',(0.,0.,1.));
#414=DIRECTION('',(4.15036644719685E-17,1.,0.));
#415=DIRECTION('center_axis',(0.,0.,-1.));
#416=DIRECTION('ref_axis',(-1.,0.,0.));
#417=DIRECTION('center_axis',(-1.,-1.48029736616687E-15,0.));
#418=DIRECTION('ref_axis',(0.,0.,1.));
#419=DIRECTION('center_axis',(0.,0.,-1.));
#420=DIRECTION('ref_axis',(-0.707106781186549,0.707106781186546,0.));
#421=DIRECTION('center_axis',(1.,0.,0.));
#422=DIRECTION('ref_axis',(0.,0.707106781186548,0.707106781186547));
#423=DIRECTION('center_axis',(-1.,1.48029736616687E-15,0.));
#424=DIRECTION('ref_axis',(0.,0.,1.));
#425=DIRECTION('',(1.,0.,0.));
#426=DIRECTION('center_axis',(0.,0.,-1.));
#427=DIRECTION('ref_axis',(-1.,0.,0.));
#428=DIRECTION('center_axis',(0.,1.,0.));
#429=DIRECTION('ref_axis',(0.,0.,1.));
#430=DIRECTION('center_axis',(0.,0.,-1.));
#431=DIRECTION('ref_axis',(0.707106781186548,0.707106781186547,0.));
#432=DIRECTION('center_axis',(0.,-1.,0.));
#433=DIRECTION('ref_axis',(0.707106781186546,0.,0.707106781186549));
#434=DIRECTION('center_axis',(0.,1.,0.));
#435=DIRECTION('ref_axis',(0.,0.,1.));
#436=DIRECTION('',(0.,-1.,0.));
#437=DIRECTION('center_axis',(0.,0.,-1.));
#438=DIRECTION('ref_axis',(-1.,0.,0.));
#439=DIRECTION('center_axis',(1.,5.92118946466749E-15,0.));
#440=DIRECTION('ref_axis',(0.,0.,1.));
#441=DIRECTION('center_axis',(0.,0.,-1.));
#442=DIRECTION('ref_axis',(0.707106781186549,-0.707106781186546,0.));
#443=DIRECTION('center_axis',(-1.,-5.92118946466744E-15,0.));
#444=DIRECTION('ref_axis',(4.18691322315673E-15,-0.707106781186548,0.707106781186547));
#445=DIRECTION('center_axis',(1.,5.92118946466749E-15,0.));
#446=DIRECTION('ref_axis',(0.,0.,1.));
#447=DIRECTION('',(-1.,-5.92118946466744E-15,0.));
#448=DIRECTION('center_axis',(0.,0.,1.));
#449=DIRECTION('ref_axis',(1.,0.,0.));
#450=DIRECTION('center_axis',(0.,1.,0.));
#451=DIRECTION('ref_axis',(0.,0.,1.));
#452=DIRECTION('center_axis',(0.,0.,1.));
#453=DIRECTION('ref_axis',(-0.707106781186548,0.707106781186547,0.));
#454=DIRECTION('center_axis',(0.,-1.,0.));
#455=DIRECTION('ref_axis',(0.707106781186547,0.,0.707106781186548));
#456=DIRECTION('',(0.,-1.,0.));
#457=DIRECTION('center_axis',(0.,0.,1.));
#458=DIRECTION('ref_axis',(1.,0.,0.));
#459=CARTESIAN_POINT('',(0.,0.,0.));
#460=CARTESIAN_POINT('Origin',(-1.21430643318376E-16,-4.38126367406829,
-1.5));
#461=CARTESIAN_POINT('',(-13.5,-59.5,-1.5));
#462=CARTESIAN_POINT('',(-13.5,-67.5,-1.5));
#463=CARTESIAN_POINT('',(-13.5,-35.9406318370341,-1.5));
#464=CARTESIAN_POINT('',(-17.,-56.,-1.5));
#465=CARTESIAN_POINT('Origin',(-17.,-59.5,-1.5));
#466=CARTESIAN_POINT('',(-18.5,-56.,-1.5));
#467=CARTESIAN_POINT('',(-8.50000000000014,-56.,-1.5));
#468=CARTESIAN_POINT('',(-21.,-53.5,-1.5));
#469=CARTESIAN_POINT('Origin',(-18.5,-53.5,-1.5));
#470=CARTESIAN_POINT('',(-21.,53.5,-1.5));
#471=CARTESIAN_POINT('',(-21.,-28.9406318370341,-1.5));
#472=CARTESIAN_POINT('',(-18.5,56.,-1.5));
#473=CARTESIAN_POINT('Origin',(-18.5,53.5,-1.5));
#474=CARTESIAN_POINT('',(18.5,56.,-1.5));
#475=CARTESIAN_POINT('',(-9.25,56.,-1.5));
#476=CARTESIAN_POINT('',(21.,53.5,-1.5));
#477=CARTESIAN_POINT('Origin',(18.5,53.5,-1.5));
#478=CARTESIAN_POINT('',(21.,-53.5,-1.5));
#479=CARTESIAN_POINT('',(21.,24.5593681629658,-1.5));
#480=CARTESIAN_POINT('',(18.5,-56.,-1.5));
#481=CARTESIAN_POINT('Origin',(18.5,-53.5,-1.5));
#482=CARTESIAN_POINT('',(17.,-56.,-1.5));
#483=CARTESIAN_POINT('',(9.25000000000016,-56.,-1.5));
#484=CARTESIAN_POINT('',(13.5,-59.5,-1.5));
#485=CARTESIAN_POINT('Origin',(17.,-59.5,-1.5));
#486=CARTESIAN_POINT('',(13.5,-67.5,-1.5));
#487=CARTESIAN_POINT('',(13.5,-31.9406318370342,-1.5));
#488=CARTESIAN_POINT('',(-15.,-67.5,-1.5));
#489=CARTESIAN_POINT('Origin',(15.,-67.5,0.));
#490=CARTESIAN_POINT('',(-13.5,-67.5,1.5));
#491=CARTESIAN_POINT('Origin',(-13.5,-67.5,0.));
#492=CARTESIAN_POINT('',(13.5,-67.5,1.5));
#493=CARTESIAN_POINT('Origin',(13.5,-67.5,0.));
#494=CARTESIAN_POINT('',(-15.,-67.5,1.5));
#495=CARTESIAN_POINT('Origin',(-13.5,-35.9406318370341,0.));
#496=CARTESIAN_POINT('',(-13.5,-59.5,1.5));
#497=CARTESIAN_POINT('',(-13.5,-35.9406318370341,1.5));
#498=CARTESIAN_POINT('Origin',(-13.5,-59.5,0.));
#499=CARTESIAN_POINT('Origin',(-17.,-59.5,0.));
#500=CARTESIAN_POINT('',(-17.,-56.,1.5));
#501=CARTESIAN_POINT('Origin',(-17.,-56.,0.));
#502=CARTESIAN_POINT('Origin',(-17.,-59.5,1.5));
#503=CARTESIAN_POINT('Origin',(-8.50000000000014,-56.,0.));
#504=CARTESIAN_POINT('',(-18.5,-56.,1.5));
#505=CARTESIAN_POINT('Origin',(-18.5,-56.,0.));
#506=CARTESIAN_POINT('',(-8.50000000000014,-56.,1.5));
#507=CARTESIAN_POINT('Origin',(-18.5,-53.5,0.));
#508=CARTESIAN_POINT('',(-21.,-53.5,1.5));
#509=CARTESIAN_POINT('Origin',(-21.,-53.5,0.));
#510=CARTESIAN_POINT('Origin',(-18.5,-53.5,1.5));
#511=CARTESIAN_POINT('Origin',(-21.,-28.9406318370341,0.));
#512=CARTESIAN_POINT('',(-21.,53.5,1.5));
#513=CARTESIAN_POINT('Origin',(-21.,53.5,0.));
#514=CARTESIAN_POINT('',(-21.,-28.9406318370341,1.5));
#515=CARTESIAN_POINT('Origin',(-18.5,53.5,0.));
#516=CARTESIAN_POINT('',(-18.5,56.,1.5));
#517=CARTESIAN_POINT('Origin',(-18.5,56.,0.));
#518=CARTESIAN_POINT('Origin',(-18.5,53.5,1.5));
#519=CARTESIAN_POINT('Origin',(-9.25,56.,0.));
#520=CARTESIAN_POINT('',(18.5,56.,1.5));
#521=CARTESIAN_POINT('Origin',(18.5,56.,0.));
#522=CARTESIAN_POINT('',(-9.25,56.,1.5));
#523=CARTESIAN_POINT('Origin',(18.5,53.5,0.));
#524=CARTESIAN_POINT('',(21.,53.5,1.5));
#525=CARTESIAN_POINT('Origin',(21.,53.5,0.));
#526=CARTESIAN_POINT('Origin',(18.5,53.5,1.5));
#527=CARTESIAN_POINT('Origin',(21.,24.5593681629658,0.));
#528=CARTESIAN_POINT('',(21.,-53.5,1.5));
#529=CARTESIAN_POINT('Origin',(21.,-53.5,0.));
#530=CARTESIAN_POINT('',(21.,24.5593681629658,1.5));
#531=CARTESIAN_POINT('Origin',(18.5,-53.5,0.));
#532=CARTESIAN_POINT('',(18.5,-56.,1.5));
#533=CARTESIAN_POINT('Origin',(18.5,-56.,0.));
#534=CARTESIAN_POINT('Origin',(18.5,-53.5,1.5));
#535=CARTESIAN_POINT('Origin',(9.25000000000016,-56.,0.));
#536=CARTESIAN_POINT('',(17.,-56.,1.5));
#537=CARTESIAN_POINT('Origin',(17.,-56.,0.));
#538=CARTESIAN_POINT('',(9.25000000000016,-56.,1.5));
#539=CARTESIAN_POINT('Origin',(17.,-59.5,0.));
#540=CARTESIAN_POINT('',(13.5,-59.5,1.5));
#541=CARTESIAN_POINT('Origin',(13.5,-59.5,0.));
#542=CARTESIAN_POINT('Origin',(17.,-59.5,1.5));
#543=CARTESIAN_POINT('Origin',(13.5,-31.9406318370342,0.));
#544=CARTESIAN_POINT('',(13.5,-31.9406318370342,1.5));
#545=CARTESIAN_POINT('Origin',(-2.44711602491887E-16,-4.38126367406829,
1.5));
#546=UNCERTAINTY_MEASURE_WITH_UNIT(LENGTH_MEASURE(0.01),#550,
'DISTANCE_ACCURACY_VALUE',
'Maximum model space distance between geometric entities at asserted c
onnectivities');
#547=UNCERTAINTY_MEASURE_WITH_UNIT(LENGTH_MEASURE(0.01),#550,
'DISTANCE_ACCURACY_VALUE',
'Maximum model space distance between geometric entities at asserted c
onnectivities');
#548=(
GEOMETRIC_REPRESENTATION_CONTEXT(3)
GLOBAL_UNCERTAINTY_ASSIGNED_CONTEXT((#546))
GLOBAL_UNIT_ASSIGNED_CONTEXT((#550,#552,#553))
REPRESENTATION_CONTEXT('','3D')
);
#549=(
GEOMETRIC_REPRESENTATION_CONTEXT(3)
GLOBAL_UNCERTAINTY_ASSIGNED_CONTEXT((#547))
GLOBAL_UNIT_ASSIGNED_CONTEXT((#550,#552,#553))
REPRESENTATION_CONTEXT('','3D')
);
#550=(
LENGTH_UNIT()
NAMED_UNIT(*)
SI_UNIT(.MILLI.,.METRE.)
);
#551=(
LENGTH_UNIT()
NAMED_UNIT(*)
SI_UNIT(.CENTI.,.METRE.)
);
#552=(
NAMED_UNIT(*)
PLANE_ANGLE_UNIT()
SI_UNIT($,.RADIAN.)
);
#553=(
NAMED_UNIT(*)
SI_UNIT($,.STERADIAN.)
SOLID_ANGLE_UNIT()
);
#554=SHAPE_DEFINITION_REPRESENTATION(#555,#556);
#555=PRODUCT_DEFINITION_SHAPE('',$,#558);
#556=SHAPE_REPRESENTATION('',(#314),#548);
#557=PRODUCT_DEFINITION_CONTEXT('part definition',#562,'design');
#558=PRODUCT_DEFINITION('WKZ-0044','E_3_01_03_00_00_WKZ-0044',#559,#557);
#559=PRODUCT_DEFINITION_FORMATION('',$,#564);
#560=PRODUCT_RELATED_PRODUCT_CATEGORY('E_3_01_03_00_00_WKZ-0044',
'E_3_01_03_00_00_WKZ-0044',(#564));
#561=APPLICATION_PROTOCOL_DEFINITION('international standard',
'automotive_design',2009,#562);
#562=APPLICATION_CONTEXT(
'Core Data for Automotive Mechanical Design Process');
#563=PRODUCT_CONTEXT('part definition',#562,'mechanical');
#564=PRODUCT('WKZ-0044','E_3_01_03_00_00_WKZ-0044',$,(#563));
#565=PRESENTATION_STYLE_ASSIGNMENT((#567));
#566=PRESENTATION_STYLE_ASSIGNMENT((#568));
#567=SURFACE_STYLE_USAGE(.BOTH.,#571);
#568=SURFACE_STYLE_USAGE(.BOTH.,#572);
#569=SURFACE_STYLE_RENDERING_WITH_PROPERTIES($,#579,(#570));
#570=SURFACE_STYLE_TRANSPARENT(0.);
#571=SURFACE_SIDE_STYLE('',(#573,#569));
#572=SURFACE_SIDE_STYLE('',(#574));
#573=SURFACE_STYLE_FILL_AREA(#575);
#574=SURFACE_STYLE_FILL_AREA(#576);
#575=FILL_AREA_STYLE('',(#577));
#576=FILL_AREA_STYLE('',(#578));
#577=FILL_AREA_STYLE_COLOUR('',#579);
#578=FILL_AREA_STYLE_COLOUR('',#580);
#579=COLOUR_RGB('',0.92156862745098,0.92156862745098,0.92156862745098);
#580=COLOUR_RGB('',0.16078431372549,0.16078431372549,0.16078431372549);
ENDSEC;
END-ISO-10303-21;
