ISO-10303-21;
HEADER;
/* Generated by software containing ST-Developer
 * from STEP Tools, Inc. (www.steptools.com) 
 */

FILE_DESCRIPTION(
/* description */ (''),
/* implementation_level */ '2;1');

FILE_NAME(
/* name */ 
'H:\\Eigene Dateien\\CAD Workspace Vault\\CAD\\E_3_Nocken\\E_3_01_Aufs
chwei\X\DFnocke\\03_F\X\E4cher\\E_3_01_03_00_00_WKZ-0043.stp',
/* time_stamp */ '2024-07-09T07:54:58+02:00',
/* author */ ('DFischer'),
/* organization */ (''),
/* preprocessor_version */ 'ST-DEVELOPER v18.1',
/* originating_system */ 'Autodesk Inventor 2021',
/* authorisation */ '');

FILE_SCHEMA (('AUTOMOTIVE_DESIGN { 1 0 10303 214 3 1 1 }'));
ENDSEC;

DATA;
#10=MECHANICAL_DESIGN_GEOMETRIC_PRESENTATION_REPRESENTATION('',(#14,#15),
#546);
#11=SHAPE_REPRESENTATION_RELATIONSHIP('SRR','None',#553,#12);
#12=ADVANCED_BREP_SHAPE_REPRESENTATION('',(#13),#545);
#13=MANIFOLD_SOLID_BREP('Volumenk\X\F6rper1',#292);
#14=STYLED_ITEM('',(#563),#290);
#15=STYLED_ITEM('',(#562),#13);
#16=PLANE('',#351);
#17=PLANE('',#352);
#18=PLANE('',#353);
#19=TOROIDAL_SURFACE('',#315,3.25000000000001,1.25);
#20=TOROIDAL_SURFACE('',#321,2.75000000000001,1.25);
#21=TOROIDAL_SURFACE('',#327,2.75,1.25);
#22=TOROIDAL_SURFACE('',#333,2.75,1.25);
#23=TOROIDAL_SURFACE('',#339,2.74999999999999,1.25);
#24=TOROIDAL_SURFACE('',#345,3.25,1.25);
#25=FACE_OUTER_BOUND('',#41,.T.);
#26=FACE_OUTER_BOUND('',#42,.T.);
#27=FACE_OUTER_BOUND('',#43,.T.);
#28=FACE_OUTER_BOUND('',#44,.T.);
#29=FACE_OUTER_BOUND('',#45,.T.);
#30=FACE_OUTER_BOUND('',#46,.T.);
#31=FACE_OUTER_BOUND('',#47,.T.);
#32=FACE_OUTER_BOUND('',#48,.T.);
#33=FACE_OUTER_BOUND('',#49,.T.);
#34=FACE_OUTER_BOUND('',#50,.T.);
#35=FACE_OUTER_BOUND('',#51,.T.);
#36=FACE_OUTER_BOUND('',#52,.T.);
#37=FACE_OUTER_BOUND('',#53,.T.);
#38=FACE_OUTER_BOUND('',#54,.T.);
#39=FACE_OUTER_BOUND('',#55,.T.);
#40=FACE_OUTER_BOUND('',#56,.T.);
#41=EDGE_LOOP('',(#185,#186,#187,#188));
#42=EDGE_LOOP('',(#189,#190,#191,#192));
#43=EDGE_LOOP('',(#193,#194,#195,#196));
#44=EDGE_LOOP('',(#197,#198,#199,#200));
#45=EDGE_LOOP('',(#201,#202,#203,#204));
#46=EDGE_LOOP('',(#205,#206,#207,#208));
#47=EDGE_LOOP('',(#209,#210,#211,#212));
#48=EDGE_LOOP('',(#213,#214,#215,#216));
#49=EDGE_LOOP('',(#217,#218,#219,#220));
#50=EDGE_LOOP('',(#221,#222,#223,#224));
#51=EDGE_LOOP('',(#225,#226,#227,#228));
#52=EDGE_LOOP('',(#229,#230,#231,#232));
#53=EDGE_LOOP('',(#233,#234,#235,#236));
#54=EDGE_LOOP('',(#237,#238,#239,#240,#241,#242,#243,#244,#245,#246,#247,
#248,#249,#250));
#55=EDGE_LOOP('',(#251,#252,#253,#254));
#56=EDGE_LOOP('',(#255,#256,#257,#258,#259,#260,#261,#262,#263,#264,#265,
#266,#267,#268));
#57=LINE('',#462,#73);
#58=LINE('',#465,#74);
#59=LINE('',#476,#75);
#60=LINE('',#477,#76);
#61=LINE('',#488,#77);
#62=LINE('',#489,#78);
#63=LINE('',#500,#79);
#64=LINE('',#501,#80);
#65=LINE('',#512,#81);
#66=LINE('',#513,#82);
#67=LINE('',#524,#83);
#68=LINE('',#525,#84);
#69=LINE('',#536,#85);
#70=LINE('',#537,#86);
#71=LINE('',#539,#87);
#72=LINE('',#541,#88);
#73=VECTOR('',#360,10.);
#74=VECTOR('',#363,10.);
#75=VECTOR('',#376,10.);
#76=VECTOR('',#377,10.);
#77=VECTOR('',#390,10.);
#78=VECTOR('',#391,10.);
#79=VECTOR('',#404,10.);
#80=VECTOR('',#405,10.);
#81=VECTOR('',#418,10.);
#82=VECTOR('',#419,10.);
#83=VECTOR('',#432,10.);
#84=VECTOR('',#433,10.);
#85=VECTOR('',#446,10.);
#86=VECTOR('',#447,10.);
#87=VECTOR('',#450,10.);
#88=VECTOR('',#453,10.);
#89=CIRCLE('',#313,1.25);
#90=CIRCLE('',#314,1.25);
#91=CIRCLE('',#316,1.25);
#92=CIRCLE('',#317,3.25000000000001);
#93=CIRCLE('',#318,3.25000000000001);
#94=CIRCLE('',#320,1.25);
#95=CIRCLE('',#322,1.25);
#96=CIRCLE('',#323,2.75000000000001);
#97=CIRCLE('',#324,2.75000000000001);
#98=CIRCLE('',#326,1.25);
#99=CIRCLE('',#328,1.25);
#100=CIRCLE('',#329,2.75);
#101=CIRCLE('',#330,2.75);
#102=CIRCLE('',#332,1.25);
#103=CIRCLE('',#334,1.25);
#104=CIRCLE('',#335,2.75);
#105=CIRCLE('',#336,2.75);
#106=CIRCLE('',#338,1.25);
#107=CIRCLE('',#340,1.25);
#108=CIRCLE('',#341,2.74999999999999);
#109=CIRCLE('',#342,2.74999999999999);
#110=CIRCLE('',#344,1.25);
#111=CIRCLE('',#346,1.25);
#112=CIRCLE('',#347,3.25);
#113=CIRCLE('',#348,3.25);
#114=CIRCLE('',#350,1.25);
#115=VERTEX_POINT('',#458);
#116=VERTEX_POINT('',#459);
#117=VERTEX_POINT('',#461);
#118=VERTEX_POINT('',#463);
#119=VERTEX_POINT('',#467);
#120=VERTEX_POINT('',#468);
#121=VERTEX_POINT('',#473);
#122=VERTEX_POINT('',#474);
#123=VERTEX_POINT('',#479);
#124=VERTEX_POINT('',#480);
#125=VERTEX_POINT('',#485);
#126=VERTEX_POINT('',#486);
#127=VERTEX_POINT('',#491);
#128=VERTEX_POINT('',#492);
#129=VERTEX_POINT('',#497);
#130=VERTEX_POINT('',#498);
#131=VERTEX_POINT('',#503);
#132=VERTEX_POINT('',#504);
#133=VERTEX_POINT('',#509);
#134=VERTEX_POINT('',#510);
#135=VERTEX_POINT('',#515);
#136=VERTEX_POINT('',#516);
#137=VERTEX_POINT('',#521);
#138=VERTEX_POINT('',#522);
#139=VERTEX_POINT('',#527);
#140=VERTEX_POINT('',#528);
#141=VERTEX_POINT('',#533);
#142=VERTEX_POINT('',#534);
#143=EDGE_CURVE('',#115,#116,#89,.T.);
#144=EDGE_CURVE('',#116,#117,#57,.T.);
#145=EDGE_CURVE('',#118,#117,#90,.T.);
#146=EDGE_CURVE('',#118,#115,#58,.T.);
#147=EDGE_CURVE('',#119,#120,#91,.T.);
#148=EDGE_CURVE('',#119,#118,#92,.T.);
#149=EDGE_CURVE('',#117,#120,#93,.T.);
#150=EDGE_CURVE('',#121,#122,#94,.T.);
#151=EDGE_CURVE('',#121,#119,#59,.T.);
#152=EDGE_CURVE('',#120,#122,#60,.T.);
#153=EDGE_CURVE('',#123,#124,#95,.T.);
#154=EDGE_CURVE('',#123,#121,#96,.T.);
#155=EDGE_CURVE('',#122,#124,#97,.T.);
#156=EDGE_CURVE('',#125,#126,#98,.T.);
#157=EDGE_CURVE('',#125,#123,#61,.T.);
#158=EDGE_CURVE('',#124,#126,#62,.T.);
#159=EDGE_CURVE('',#127,#128,#99,.T.);
#160=EDGE_CURVE('',#127,#125,#100,.T.);
#161=EDGE_CURVE('',#126,#128,#101,.T.);
#162=EDGE_CURVE('',#129,#130,#102,.T.);
#163=EDGE_CURVE('',#129,#127,#63,.T.);
#164=EDGE_CURVE('',#128,#130,#64,.T.);
#165=EDGE_CURVE('',#131,#132,#103,.T.);
#166=EDGE_CURVE('',#131,#129,#104,.T.);
#167=EDGE_CURVE('',#130,#132,#105,.T.);
#168=EDGE_CURVE('',#133,#134,#106,.T.);
#169=EDGE_CURVE('',#133,#131,#65,.T.);
#170=EDGE_CURVE('',#132,#134,#66,.T.);
#171=EDGE_CURVE('',#135,#136,#107,.T.);
#172=EDGE_CURVE('',#135,#133,#108,.T.);
#173=EDGE_CURVE('',#134,#136,#109,.T.);
#174=EDGE_CURVE('',#137,#138,#110,.T.);
#175=EDGE_CURVE('',#137,#135,#67,.T.);
#176=EDGE_CURVE('',#136,#138,#68,.T.);
#177=EDGE_CURVE('',#139,#140,#111,.T.);
#178=EDGE_CURVE('',#139,#137,#112,.T.);
#179=EDGE_CURVE('',#138,#140,#113,.T.);
#180=EDGE_CURVE('',#141,#142,#114,.T.);
#181=EDGE_CURVE('',#142,#139,#69,.T.);
#182=EDGE_CURVE('',#140,#141,#70,.T.);
#183=EDGE_CURVE('',#141,#116,#71,.T.);
#184=EDGE_CURVE('',#115,#142,#72,.T.);
#185=ORIENTED_EDGE('',*,*,#143,.T.);
#186=ORIENTED_EDGE('',*,*,#144,.T.);
#187=ORIENTED_EDGE('',*,*,#145,.F.);
#188=ORIENTED_EDGE('',*,*,#146,.T.);
#189=ORIENTED_EDGE('',*,*,#147,.F.);
#190=ORIENTED_EDGE('',*,*,#148,.T.);
#191=ORIENTED_EDGE('',*,*,#145,.T.);
#192=ORIENTED_EDGE('',*,*,#149,.T.);
#193=ORIENTED_EDGE('',*,*,#150,.F.);
#194=ORIENTED_EDGE('',*,*,#151,.T.);
#195=ORIENTED_EDGE('',*,*,#147,.T.);
#196=ORIENTED_EDGE('',*,*,#152,.T.);
#197=ORIENTED_EDGE('',*,*,#153,.F.);
#198=ORIENTED_EDGE('',*,*,#154,.T.);
#199=ORIENTED_EDGE('',*,*,#150,.T.);
#200=ORIENTED_EDGE('',*,*,#155,.T.);
#201=ORIENTED_EDGE('',*,*,#156,.F.);
#202=ORIENTED_EDGE('',*,*,#157,.T.);
#203=ORIENTED_EDGE('',*,*,#153,.T.);
#204=ORIENTED_EDGE('',*,*,#158,.T.);
#205=ORIENTED_EDGE('',*,*,#159,.F.);
#206=ORIENTED_EDGE('',*,*,#160,.T.);
#207=ORIENTED_EDGE('',*,*,#156,.T.);
#208=ORIENTED_EDGE('',*,*,#161,.T.);
#209=ORIENTED_EDGE('',*,*,#162,.F.);
#210=ORIENTED_EDGE('',*,*,#163,.T.);
#211=ORIENTED_EDGE('',*,*,#159,.T.);
#212=ORIENTED_EDGE('',*,*,#164,.T.);
#213=ORIENTED_EDGE('',*,*,#165,.F.);
#214=ORIENTED_EDGE('',*,*,#166,.T.);
#215=ORIENTED_EDGE('',*,*,#162,.T.);
#216=ORIENTED_EDGE('',*,*,#167,.T.);
#217=ORIENTED_EDGE('',*,*,#168,.F.);
#218=ORIENTED_EDGE('',*,*,#169,.T.);
#219=ORIENTED_EDGE('',*,*,#165,.T.);
#220=ORIENTED_EDGE('',*,*,#170,.T.);
#221=ORIENTED_EDGE('',*,*,#171,.F.);
#222=ORIENTED_EDGE('',*,*,#172,.T.);
#223=ORIENTED_EDGE('',*,*,#168,.T.);
#224=ORIENTED_EDGE('',*,*,#173,.T.);
#225=ORIENTED_EDGE('',*,*,#174,.F.);
#226=ORIENTED_EDGE('',*,*,#175,.T.);
#227=ORIENTED_EDGE('',*,*,#171,.T.);
#228=ORIENTED_EDGE('',*,*,#176,.T.);
#229=ORIENTED_EDGE('',*,*,#177,.F.);
#230=ORIENTED_EDGE('',*,*,#178,.T.);
#231=ORIENTED_EDGE('',*,*,#174,.T.);
#232=ORIENTED_EDGE('',*,*,#179,.T.);
#233=ORIENTED_EDGE('',*,*,#180,.T.);
#234=ORIENTED_EDGE('',*,*,#181,.T.);
#235=ORIENTED_EDGE('',*,*,#177,.T.);
#236=ORIENTED_EDGE('',*,*,#182,.T.);
#237=ORIENTED_EDGE('',*,*,#182,.F.);
#238=ORIENTED_EDGE('',*,*,#179,.F.);
#239=ORIENTED_EDGE('',*,*,#176,.F.);
#240=ORIENTED_EDGE('',*,*,#173,.F.);
#241=ORIENTED_EDGE('',*,*,#170,.F.);
#242=ORIENTED_EDGE('',*,*,#167,.F.);
#243=ORIENTED_EDGE('',*,*,#164,.F.);
#244=ORIENTED_EDGE('',*,*,#161,.F.);
#245=ORIENTED_EDGE('',*,*,#158,.F.);
#246=ORIENTED_EDGE('',*,*,#155,.F.);
#247=ORIENTED_EDGE('',*,*,#152,.F.);
#248=ORIENTED_EDGE('',*,*,#149,.F.);
#249=ORIENTED_EDGE('',*,*,#144,.F.);
#250=ORIENTED_EDGE('',*,*,#183,.F.);
#251=ORIENTED_EDGE('',*,*,#180,.F.);
#252=ORIENTED_EDGE('',*,*,#183,.T.);
#253=ORIENTED_EDGE('',*,*,#143,.F.);
#254=ORIENTED_EDGE('',*,*,#184,.T.);
#255=ORIENTED_EDGE('',*,*,#181,.F.);
#256=ORIENTED_EDGE('',*,*,#184,.F.);
#257=ORIENTED_EDGE('',*,*,#146,.F.);
#258=ORIENTED_EDGE('',*,*,#148,.F.);
#259=ORIENTED_EDGE('',*,*,#151,.F.);
#260=ORIENTED_EDGE('',*,*,#154,.F.);
#261=ORIENTED_EDGE('',*,*,#157,.F.);
#262=ORIENTED_EDGE('',*,*,#160,.F.);
#263=ORIENTED_EDGE('',*,*,#163,.F.);
#264=ORIENTED_EDGE('',*,*,#166,.F.);
#265=ORIENTED_EDGE('',*,*,#169,.F.);
#266=ORIENTED_EDGE('',*,*,#172,.F.);
#267=ORIENTED_EDGE('',*,*,#175,.F.);
#268=ORIENTED_EDGE('',*,*,#178,.F.);
#269=CYLINDRICAL_SURFACE('',#312,1.25);
#270=CYLINDRICAL_SURFACE('',#319,1.25);
#271=CYLINDRICAL_SURFACE('',#325,1.25);
#272=CYLINDRICAL_SURFACE('',#331,1.25);
#273=CYLINDRICAL_SURFACE('',#337,1.25);
#274=CYLINDRICAL_SURFACE('',#343,1.25);
#275=CYLINDRICAL_SURFACE('',#349,1.25);
#276=ADVANCED_FACE('',(#25),#269,.T.);
#277=ADVANCED_FACE('',(#26),#19,.T.);
#278=ADVANCED_FACE('',(#27),#270,.T.);
#279=ADVANCED_FACE('',(#28),#20,.T.);
#280=ADVANCED_FACE('',(#29),#271,.T.);
#281=ADVANCED_FACE('',(#30),#21,.T.);
#282=ADVANCED_FACE('',(#31),#272,.T.);
#283=ADVANCED_FACE('',(#32),#22,.T.);
#284=ADVANCED_FACE('',(#33),#273,.T.);
#285=ADVANCED_FACE('',(#34),#23,.T.);
#286=ADVANCED_FACE('',(#35),#274,.T.);
#287=ADVANCED_FACE('',(#36),#24,.T.);
#288=ADVANCED_FACE('',(#37),#275,.T.);
#289=ADVANCED_FACE('',(#38),#16,.F.);
#290=ADVANCED_FACE('',(#39),#17,.T.);
#291=ADVANCED_FACE('',(#40),#18,.T.);
#292=CLOSED_SHELL('',(#276,#277,#278,#279,#280,#281,#282,#283,#284,#285,
#286,#287,#288,#289,#290,#291));
#293=DERIVED_UNIT_ELEMENT(#295,1.);
#294=DERIVED_UNIT_ELEMENT(#548,3.);
#295=(
MASS_UNIT()
NAMED_UNIT(*)
SI_UNIT($,.GRAM.)
);
#296=DERIVED_UNIT((#293,#294));
#297=MEASURE_REPRESENTATION_ITEM('density measure',
POSITIVE_RATIO_MEASURE(8.03),#296);
#298=PROPERTY_DEFINITION_REPRESENTATION(#303,#300);
#299=PROPERTY_DEFINITION_REPRESENTATION(#304,#301);
#300=REPRESENTATION('material name',(#302),#545);
#301=REPRESENTATION('density',(#297),#545);
#302=DESCRIPTIVE_REPRESENTATION_ITEM('1.4301','1.4301');
#303=PROPERTY_DEFINITION('material property','material name',#555);
#304=PROPERTY_DEFINITION('material property','density of part',#555);
#305=DATE_TIME_ROLE('creation_date');
#306=APPLIED_DATE_AND_TIME_ASSIGNMENT(#307,#305,(#555));
#307=DATE_AND_TIME(#308,#309);
#308=CALENDAR_DATE(2011,19,10);
#309=LOCAL_TIME(0,0,0.,#310);
#310=COORDINATED_UNIVERSAL_TIME_OFFSET(0,0,.BEHIND.);
#311=AXIS2_PLACEMENT_3D('placement',#456,#354,#355);
#312=AXIS2_PLACEMENT_3D('',#457,#356,#357);
#313=AXIS2_PLACEMENT_3D('',#460,#358,#359);
#314=AXIS2_PLACEMENT_3D('',#464,#361,#362);
#315=AXIS2_PLACEMENT_3D('',#466,#364,#365);
#316=AXIS2_PLACEMENT_3D('',#469,#366,#367);
#317=AXIS2_PLACEMENT_3D('',#470,#368,#369);
#318=AXIS2_PLACEMENT_3D('',#471,#370,#371);
#319=AXIS2_PLACEMENT_3D('',#472,#372,#373);
#320=AXIS2_PLACEMENT_3D('',#475,#374,#375);
#321=AXIS2_PLACEMENT_3D('',#478,#378,#379);
#322=AXIS2_PLACEMENT_3D('',#481,#380,#381);
#323=AXIS2_PLACEMENT_3D('',#482,#382,#383);
#324=AXIS2_PLACEMENT_3D('',#483,#384,#385);
#325=AXIS2_PLACEMENT_3D('',#484,#386,#387);
#326=AXIS2_PLACEMENT_3D('',#487,#388,#389);
#327=AXIS2_PLACEMENT_3D('',#490,#392,#393);
#328=AXIS2_PLACEMENT_3D('',#493,#394,#395);
#329=AXIS2_PLACEMENT_3D('',#494,#396,#397);
#330=AXIS2_PLACEMENT_3D('',#495,#398,#399);
#331=AXIS2_PLACEMENT_3D('',#496,#400,#401);
#332=AXIS2_PLACEMENT_3D('',#499,#402,#403);
#333=AXIS2_PLACEMENT_3D('',#502,#406,#407);
#334=AXIS2_PLACEMENT_3D('',#505,#408,#409);
#335=AXIS2_PLACEMENT_3D('',#506,#410,#411);
#336=AXIS2_PLACEMENT_3D('',#507,#412,#413);
#337=AXIS2_PLACEMENT_3D('',#508,#414,#415);
#338=AXIS2_PLACEMENT_3D('',#511,#416,#417);
#339=AXIS2_PLACEMENT_3D('',#514,#420,#421);
#340=AXIS2_PLACEMENT_3D('',#517,#422,#423);
#341=AXIS2_PLACEMENT_3D('',#518,#424,#425);
#342=AXIS2_PLACEMENT_3D('',#519,#426,#427);
#343=AXIS2_PLACEMENT_3D('',#520,#428,#429);
#344=AXIS2_PLACEMENT_3D('',#523,#430,#431);
#345=AXIS2_PLACEMENT_3D('',#526,#434,#435);
#346=AXIS2_PLACEMENT_3D('',#529,#436,#437);
#347=AXIS2_PLACEMENT_3D('',#530,#438,#439);
#348=AXIS2_PLACEMENT_3D('',#531,#440,#441);
#349=AXIS2_PLACEMENT_3D('',#532,#442,#443);
#350=AXIS2_PLACEMENT_3D('',#535,#444,#445);
#351=AXIS2_PLACEMENT_3D('',#538,#448,#449);
#352=AXIS2_PLACEMENT_3D('',#540,#451,#452);
#353=AXIS2_PLACEMENT_3D('',#542,#454,#455);
#354=DIRECTION('axis',(0.,0.,1.));
#355=DIRECTION('refdir',(1.,0.,0.));
#356=DIRECTION('center_axis',(0.,1.,0.));
#357=DIRECTION('ref_axis',(0.707106781186547,0.,-0.707106781186547));
#358=DIRECTION('center_axis',(0.,1.,0.));
#359=DIRECTION('ref_axis',(0.707106781186547,0.,-0.707106781186547));
#360=DIRECTION('',(0.,1.,0.));
#361=DIRECTION('center_axis',(0.,1.,0.));
#362=DIRECTION('ref_axis',(0.,0.,1.));
#363=DIRECTION('',(0.,-1.,0.));
#364=DIRECTION('center_axis',(0.,0.,-1.));
#365=DIRECTION('ref_axis',(-1.,0.,0.));
#366=DIRECTION('center_axis',(1.,5.32907051820075E-15,0.));
#367=DIRECTION('ref_axis',(0.,0.,1.));
#368=DIRECTION('center_axis',(0.,0.,1.));
#369=DIRECTION('ref_axis',(-0.707106781186548,0.707106781186547,0.));
#370=DIRECTION('center_axis',(0.,0.,-1.));
#371=DIRECTION('ref_axis',(-0.707106781186548,0.707106781186547,0.));
#372=DIRECTION('center_axis',(1.,5.92118946466744E-15,0.));
#373=DIRECTION('ref_axis',(3.76822190084106E-15,-0.707106781186547,-0.707106781186547));
#374=DIRECTION('center_axis',(1.,3.5527136788005E-15,0.));
#375=DIRECTION('ref_axis',(0.,0.,1.));
#376=DIRECTION('',(-1.,-5.92118946466744E-15,0.));
#377=DIRECTION('',(1.,5.92118946466744E-15,0.));
#378=DIRECTION('center_axis',(0.,0.,1.));
#379=DIRECTION('ref_axis',(1.,0.,0.));
#380=DIRECTION('center_axis',(0.,1.,0.));
#381=DIRECTION('ref_axis',(0.,0.,1.));
#382=DIRECTION('center_axis',(0.,0.,-1.));
#383=DIRECTION('ref_axis',(0.707106781186549,-0.707106781186546,0.));
#384=DIRECTION('center_axis',(0.,0.,1.));
#385=DIRECTION('ref_axis',(0.707106781186549,-0.707106781186546,0.));
#386=DIRECTION('center_axis',(0.,1.,0.));
#387=DIRECTION('ref_axis',(0.707106781186547,0.,-0.707106781186547));
#388=DIRECTION('center_axis',(0.,1.,0.));
#389=DIRECTION('ref_axis',(0.,0.,1.));
#390=DIRECTION('',(0.,-1.,0.));
#391=DIRECTION('',(0.,1.,0.));
#392=DIRECTION('center_axis',(0.,0.,1.));
#393=DIRECTION('ref_axis',(1.,0.,0.));
#394=DIRECTION('center_axis',(-1.,0.,0.));
#395=DIRECTION('ref_axis',(0.,0.,1.));
#396=DIRECTION('center_axis',(0.,0.,-1.));
#397=DIRECTION('ref_axis',(0.707106781186548,0.707106781186548,0.));
#398=DIRECTION('center_axis',(0.,0.,1.));
#399=DIRECTION('ref_axis',(0.707106781186548,0.707106781186548,0.));
#400=DIRECTION('center_axis',(-1.,0.,0.));
#401=DIRECTION('ref_axis',(0.,0.707106781186547,-0.707106781186547));
#402=DIRECTION('center_axis',(-1.,0.,0.));
#403=DIRECTION('ref_axis',(0.,0.,1.));
#404=DIRECTION('',(1.,0.,0.));
#405=DIRECTION('',(-1.,0.,0.));
#406=DIRECTION('center_axis',(0.,0.,1.));
#407=DIRECTION('ref_axis',(1.,0.,0.));
#408=DIRECTION('center_axis',(0.,-1.,0.));
#409=DIRECTION('ref_axis',(0.,0.,1.));
#410=DIRECTION('center_axis',(0.,0.,-1.));
#411=DIRECTION('ref_axis',(-0.707106781186547,0.707106781186548,0.));
#412=DIRECTION('center_axis',(0.,0.,1.));
#413=DIRECTION('ref_axis',(-0.707106781186548,0.707106781186548,0.));
#414=DIRECTION('center_axis',(0.,-1.,0.));
#415=DIRECTION('ref_axis',(-0.707106781186547,0.,-0.707106781186547));
#416=DIRECTION('center_axis',(0.,-1.,0.));
#417=DIRECTION('ref_axis',(0.,0.,1.));
#418=DIRECTION('',(0.,1.,0.));
#419=DIRECTION('',(0.,-1.,0.));
#420=DIRECTION('center_axis',(0.,0.,1.));
#421=DIRECTION('ref_axis',(1.,0.,0.));
#422=DIRECTION('center_axis',(1.,-7.105427357601E-15,0.));
#423=DIRECTION('ref_axis',(0.,0.,1.));
#424=DIRECTION('center_axis',(0.,0.,-1.));
#425=DIRECTION('ref_axis',(-0.707106781186548,-0.707106781186547,0.));
#426=DIRECTION('center_axis',(0.,0.,1.));
#427=DIRECTION('ref_axis',(-0.707106781186548,-0.707106781186547,0.));
#428=DIRECTION('center_axis',(1.,-5.92118946466739E-15,0.));
#429=DIRECTION('ref_axis',(-5.02429586778808E-15,-0.707106781186547,-0.707106781186547));
#430=DIRECTION('center_axis',(1.,-5.32907051820075E-15,0.));
#431=DIRECTION('ref_axis',(0.,0.,1.));
#432=DIRECTION('',(-1.,5.92118946466739E-15,0.));
#433=DIRECTION('',(1.,-5.92118946466739E-15,0.));
#434=DIRECTION('center_axis',(0.,0.,-1.));
#435=DIRECTION('ref_axis',(-1.,0.,0.));
#436=DIRECTION('center_axis',(0.,-1.,0.));
#437=DIRECTION('ref_axis',(0.,0.,1.));
#438=DIRECTION('center_axis',(0.,0.,1.));
#439=DIRECTION('ref_axis',(0.70710678118655,0.707106781186545,0.));
#440=DIRECTION('center_axis',(0.,0.,-1.));
#441=DIRECTION('ref_axis',(0.70710678118655,0.707106781186545,0.));
#442=DIRECTION('center_axis',(-5.55111512312578E-16,-1.,0.));
#443=DIRECTION('ref_axis',(-0.707106781186547,0.,-0.707106781186547));
#444=DIRECTION('center_axis',(0.,1.,0.));
#445=DIRECTION('ref_axis',(-0.707106781186547,0.,0.707106781186547));
#446=DIRECTION('',(5.55111512312578E-16,1.,0.));
#447=DIRECTION('',(-5.55111512312578E-16,-1.,0.));
#448=DIRECTION('center_axis',(0.,0.,1.));
#449=DIRECTION('ref_axis',(1.,0.,0.));
#450=DIRECTION('',(1.,0.,0.));
#451=DIRECTION('center_axis',(0.,-1.,0.));
#452=DIRECTION('ref_axis',(0.,0.,-1.));
#453=DIRECTION('',(-1.,0.,0.));
#454=DIRECTION('center_axis',(0.,0.,1.));
#455=DIRECTION('ref_axis',(1.,0.,0.));
#456=CARTESIAN_POINT('',(0.,0.,0.));
#457=CARTESIAN_POINT('Origin',(13.75,-31.6189546230905,0.));
#458=CARTESIAN_POINT('',(13.75,-67.5,1.25));
#459=CARTESIAN_POINT('',(13.75,-67.5,-1.25));
#460=CARTESIAN_POINT('Origin',(13.75,-67.5,0.));
#461=CARTESIAN_POINT('',(13.75,-59.5,-1.25));
#462=CARTESIAN_POINT('',(13.75,-31.6189546230905,-1.25));
#463=CARTESIAN_POINT('',(13.75,-59.5,1.25));
#464=CARTESIAN_POINT('Origin',(13.75,-59.5,0.));
#465=CARTESIAN_POINT('',(13.75,-31.6189546230905,1.25));
#466=CARTESIAN_POINT('Origin',(17.,-59.5,0.));
#467=CARTESIAN_POINT('',(17.,-56.25,1.25));
#468=CARTESIAN_POINT('',(17.,-56.25,-1.25));
#469=CARTESIAN_POINT('Origin',(17.,-56.25,0.));
#470=CARTESIAN_POINT('Origin',(17.,-59.5,1.25));
#471=CARTESIAN_POINT('Origin',(17.,-59.5,-1.25));
#472=CARTESIAN_POINT('Origin',(9.25000000000016,-56.25,0.));
#473=CARTESIAN_POINT('',(18.5,-56.25,1.25));
#474=CARTESIAN_POINT('',(18.5,-56.25,-1.25));
#475=CARTESIAN_POINT('Origin',(18.5,-56.25,0.));
#476=CARTESIAN_POINT('',(9.25000000000016,-56.25,1.25));
#477=CARTESIAN_POINT('',(9.25000000000016,-56.25,-1.25));
#478=CARTESIAN_POINT('Origin',(18.5,-53.5,0.));
#479=CARTESIAN_POINT('',(21.25,-53.5,1.25));
#480=CARTESIAN_POINT('',(21.25,-53.5,-1.25));
#481=CARTESIAN_POINT('Origin',(21.25,-53.5,0.));
#482=CARTESIAN_POINT('Origin',(18.5,-53.5,1.25));
#483=CARTESIAN_POINT('Origin',(18.5,-53.5,-1.25));
#484=CARTESIAN_POINT('Origin',(21.25,24.8810453769095,0.));
#485=CARTESIAN_POINT('',(21.25,53.5,1.25));
#486=CARTESIAN_POINT('',(21.25,53.5,-1.25));
#487=CARTESIAN_POINT('Origin',(21.25,53.5,0.));
#488=CARTESIAN_POINT('',(21.25,24.8810453769095,1.25));
#489=CARTESIAN_POINT('',(21.25,24.8810453769095,-1.25));
#490=CARTESIAN_POINT('Origin',(18.5,53.5,0.));
#491=CARTESIAN_POINT('',(18.5,56.25,1.25));
#492=CARTESIAN_POINT('',(18.5,56.25,-1.25));
#493=CARTESIAN_POINT('Origin',(18.5,56.25,0.));
#494=CARTESIAN_POINT('Origin',(18.5,53.5,1.25));
#495=CARTESIAN_POINT('Origin',(18.5,53.5,-1.25));
#496=CARTESIAN_POINT('Origin',(9.25,56.25,0.));
#497=CARTESIAN_POINT('',(-18.5,56.25,1.25));
#498=CARTESIAN_POINT('',(-18.5,56.25,-1.25));
#499=CARTESIAN_POINT('Origin',(-18.5,56.25,0.));
#500=CARTESIAN_POINT('',(9.25,56.25,1.25));
#501=CARTESIAN_POINT('',(9.25,56.25,-1.25));
#502=CARTESIAN_POINT('Origin',(-18.5,53.5,0.));
#503=CARTESIAN_POINT('',(-21.25,53.5,1.25));
#504=CARTESIAN_POINT('',(-21.25,53.5,-1.25));
#505=CARTESIAN_POINT('Origin',(-21.25,53.5,0.));
#506=CARTESIAN_POINT('Origin',(-18.5,53.5,1.25));
#507=CARTESIAN_POINT('Origin',(-18.5,53.5,-1.25));
#508=CARTESIAN_POINT('Origin',(-21.25,24.4881218756588,0.));
#509=CARTESIAN_POINT('',(-21.25,-53.5,1.25));
#510=CARTESIAN_POINT('',(-21.25,-53.5,-1.25));
#511=CARTESIAN_POINT('Origin',(-21.25,-53.5,0.));
#512=CARTESIAN_POINT('',(-21.25,24.4881218756588,1.25));
#513=CARTESIAN_POINT('',(-21.25,24.4881218756588,-1.25));
#514=CARTESIAN_POINT('Origin',(-18.5,-53.5,0.));
#515=CARTESIAN_POINT('',(-18.5,-56.25,1.25));
#516=CARTESIAN_POINT('',(-18.5,-56.25,-1.25));
#517=CARTESIAN_POINT('Origin',(-18.5,-56.25,0.));
#518=CARTESIAN_POINT('Origin',(-18.5,-53.5,1.25));
#519=CARTESIAN_POINT('Origin',(-18.5,-53.5,-1.25));
#520=CARTESIAN_POINT('Origin',(-8.50000000000015,-56.2500000000001,0.));
#521=CARTESIAN_POINT('',(-17.,-56.25,1.25));
#522=CARTESIAN_POINT('',(-17.,-56.25,-1.25));
#523=CARTESIAN_POINT('Origin',(-17.,-56.25,0.));
#524=CARTESIAN_POINT('',(-8.50000000000015,-56.2500000000001,1.25));
#525=CARTESIAN_POINT('',(-8.50000000000015,-56.2500000000001,-1.25));
#526=CARTESIAN_POINT('Origin',(-17.,-59.5,0.));
#527=CARTESIAN_POINT('',(-13.75,-59.5,1.25));
#528=CARTESIAN_POINT('',(-13.75,-59.5,-1.25));
#529=CARTESIAN_POINT('Origin',(-13.75,-59.5,0.));
#530=CARTESIAN_POINT('Origin',(-17.,-59.5,1.25));
#531=CARTESIAN_POINT('Origin',(-17.,-59.5,-1.25));
#532=CARTESIAN_POINT('Origin',(-13.75,-35.6189546230905,0.));
#533=CARTESIAN_POINT('',(-13.75,-67.5,-1.25));
#534=CARTESIAN_POINT('',(-13.75,-67.5,1.25));
#535=CARTESIAN_POINT('Origin',(-13.75,-67.5,0.));
#536=CARTESIAN_POINT('',(-13.75,-35.6189546230905,1.25));
#537=CARTESIAN_POINT('',(-13.75,-35.6189546230905,-1.25));
#538=CARTESIAN_POINT('Origin',(8.15320033709099E-16,-3.73790924618103,-1.25));
#539=CARTESIAN_POINT('',(-15.,-67.5,-1.25));
#540=CARTESIAN_POINT('Origin',(15.,-67.5,0.));
#541=CARTESIAN_POINT('',(-15.,-67.5,1.25));
#542=CARTESIAN_POINT('Origin',(4.49552527081658E-16,-3.73790924618103,1.25));
#543=UNCERTAINTY_MEASURE_WITH_UNIT(LENGTH_MEASURE(0.01),#547,
'DISTANCE_ACCURACY_VALUE',
'Maximum model space distance between geometric entities at asserted c
onnectivities');
#544=UNCERTAINTY_MEASURE_WITH_UNIT(LENGTH_MEASURE(0.01),#547,
'DISTANCE_ACCURACY_VALUE',
'Maximum model space distance between geometric entities at asserted c
onnectivities');
#545=(
GEOMETRIC_REPRESENTATION_CONTEXT(3)
GLOBAL_UNCERTAINTY_ASSIGNED_CONTEXT((#543))
GLOBAL_UNIT_ASSIGNED_CONTEXT((#547,#549,#550))
REPRESENTATION_CONTEXT('','3D')
);
#546=(
GEOMETRIC_REPRESENTATION_CONTEXT(3)
GLOBAL_UNCERTAINTY_ASSIGNED_CONTEXT((#544))
GLOBAL_UNIT_ASSIGNED_CONTEXT((#547,#549,#550))
REPRESENTATION_CONTEXT('','3D')
);
#547=(
LENGTH_UNIT()
NAMED_UNIT(*)
SI_UNIT(.MILLI.,.METRE.)
);
#548=(
LENGTH_UNIT()
NAMED_UNIT(*)
SI_UNIT(.CENTI.,.METRE.)
);
#549=(
NAMED_UNIT(*)
PLANE_ANGLE_UNIT()
SI_UNIT($,.RADIAN.)
);
#550=(
NAMED_UNIT(*)
SI_UNIT($,.STERADIAN.)
SOLID_ANGLE_UNIT()
);
#551=SHAPE_DEFINITION_REPRESENTATION(#552,#553);
#552=PRODUCT_DEFINITION_SHAPE('',$,#555);
#553=SHAPE_REPRESENTATION('',(#311),#545);
#554=PRODUCT_DEFINITION_CONTEXT('part definition',#559,'design');
#555=PRODUCT_DEFINITION('WKZ-0043','E_3_01_03_00_00_WKZ-0043',#556,#554);
#556=PRODUCT_DEFINITION_FORMATION('',$,#561);
#557=PRODUCT_RELATED_PRODUCT_CATEGORY('E_3_01_03_00_00_WKZ-0043',
'E_3_01_03_00_00_WKZ-0043',(#561));
#558=APPLICATION_PROTOCOL_DEFINITION('international standard',
'automotive_design',2009,#559);
#559=APPLICATION_CONTEXT(
'Core Data for Automotive Mechanical Design Process');
#560=PRODUCT_CONTEXT('part definition',#559,'mechanical');
#561=PRODUCT('WKZ-0043','E_3_01_03_00_00_WKZ-0043',$,(#560));
#562=PRESENTATION_STYLE_ASSIGNMENT((#564));
#563=PRESENTATION_STYLE_ASSIGNMENT((#565));
#564=SURFACE_STYLE_USAGE(.BOTH.,#568);
#565=SURFACE_STYLE_USAGE(.BOTH.,#569);
#566=SURFACE_STYLE_RENDERING_WITH_PROPERTIES($,#576,(#567));
#567=SURFACE_STYLE_TRANSPARENT(0.);
#568=SURFACE_SIDE_STYLE('',(#570,#566));
#569=SURFACE_SIDE_STYLE('',(#571));
#570=SURFACE_STYLE_FILL_AREA(#572);
#571=SURFACE_STYLE_FILL_AREA(#573);
#572=FILL_AREA_STYLE('',(#574));
#573=FILL_AREA_STYLE('',(#575));
#574=FILL_AREA_STYLE_COLOUR('',#576);
#575=FILL_AREA_STYLE_COLOUR('',#577);
#576=COLOUR_RGB('',0.92156862745098,0.92156862745098,0.92156862745098);
#577=COLOUR_RGB('',0.16078431372549,0.16078431372549,0.16078431372549);
ENDSEC;
END-ISO-10303-21;
