ISO-10303-21;
HEADER;
/* Generated by software containing ST-Developer
 * from STEP Tools, Inc. (www.steptools.com) 
 */

FILE_DESCRIPTION(
/* description */ (''),
/* implementation_level */ '2;1');

FILE_NAME(
/* name */ 
'H:\\Eigene Dateien\\CAD Workspace Vault\\CAD\\E_3_Nocken\\E_3_01_Aufs
chwei\X\DFnocke\\03_F\X\E4cher\\E_3_01_03_00_00_WKZ-0011.stp',
/* time_stamp */ '2024-06-07T11:53:22+02:00',
/* author */ ('DFischer'),
/* organization */ (''),
/* preprocessor_version */ 'ST-DEVELOPER v18.1',
/* originating_system */ 'Autodesk Inventor 2021',
/* authorisation */ '');

FILE_SCHEMA (('AUTOMOTIVE_DESIGN { 1 0 10303 214 3 1 1 }'));
ENDSEC;

DATA;
#10=MECHANICAL_DESIGN_GEOMETRIC_PRESENTATION_REPRESENTATION('',(#14,#15),
#392);
#11=SHAPE_REPRESENTATION_RELATIONSHIP('SRR','None',#399,#12);
#12=ADVANCED_BREP_SHAPE_REPRESENTATION('',(#13),#391);
#13=MANIFOLD_SOLID_BREP('Volumenk\X\F6rper1',#230);
#14=STYLED_ITEM('',(#409),#228);
#15=STYLED_ITEM('',(#408),#13);
#16=CYLINDRICAL_SURFACE('',#254,1.5);
#17=CYLINDRICAL_SURFACE('',#261,1.5);
#18=FACE_OUTER_BOUND('',#30,.T.);
#19=FACE_OUTER_BOUND('',#31,.T.);
#20=FACE_OUTER_BOUND('',#32,.T.);
#21=FACE_OUTER_BOUND('',#33,.T.);
#22=FACE_OUTER_BOUND('',#34,.T.);
#23=FACE_OUTER_BOUND('',#35,.T.);
#24=FACE_OUTER_BOUND('',#36,.T.);
#25=FACE_OUTER_BOUND('',#37,.T.);
#26=FACE_OUTER_BOUND('',#38,.T.);
#27=FACE_OUTER_BOUND('',#39,.T.);
#28=FACE_OUTER_BOUND('',#40,.T.);
#29=FACE_OUTER_BOUND('',#41,.T.);
#30=EDGE_LOOP('',(#148,#149,#150,#151,#152,#153,#154,#155,#156,#157));
#31=EDGE_LOOP('',(#158,#159,#160,#161));
#32=EDGE_LOOP('',(#162,#163,#164,#165));
#33=EDGE_LOOP('',(#166,#167,#168,#169));
#34=EDGE_LOOP('',(#170,#171,#172,#173));
#35=EDGE_LOOP('',(#174,#175,#176,#177));
#36=EDGE_LOOP('',(#178,#179,#180,#181));
#37=EDGE_LOOP('',(#182,#183,#184,#185));
#38=EDGE_LOOP('',(#186,#187,#188,#189));
#39=EDGE_LOOP('',(#190,#191,#192,#193));
#40=EDGE_LOOP('',(#194,#195,#196,#197));
#41=EDGE_LOOP('',(#198,#199,#200,#201,#202,#203,#204,#205,#206,#207));
#42=CIRCLE('',#251,1.5);
#43=CIRCLE('',#252,1.5);
#44=CIRCLE('',#255,1.5);
#45=CIRCLE('',#262,1.5);
#46=LINE('',#330,#72);
#47=LINE('',#332,#73);
#48=LINE('',#334,#74);
#49=LINE('',#338,#75);
#50=LINE('',#340,#76);
#51=LINE('',#342,#77);
#52=LINE('',#344,#78);
#53=LINE('',#346,#79);
#54=LINE('',#351,#80);
#55=LINE('',#352,#81);
#56=LINE('',#353,#82);
#57=LINE('',#357,#83);
#58=LINE('',#360,#84);
#59=LINE('',#361,#85);
#60=LINE('',#364,#86);
#61=LINE('',#365,#87);
#62=LINE('',#368,#88);
#63=LINE('',#369,#89);
#64=LINE('',#372,#90);
#65=LINE('',#373,#91);
#66=LINE('',#376,#92);
#67=LINE('',#377,#93);
#68=LINE('',#381,#94);
#69=LINE('',#384,#95);
#70=LINE('',#385,#96);
#71=LINE('',#387,#97);
#72=VECTOR('',#270,10.);
#73=VECTOR('',#271,10.);
#74=VECTOR('',#272,10.);
#75=VECTOR('',#275,10.);
#76=VECTOR('',#276,10.);
#77=VECTOR('',#277,10.);
#78=VECTOR('',#278,10.);
#79=VECTOR('',#279,10.);
#80=VECTOR('',#284,10.);
#81=VECTOR('',#285,10.);
#82=VECTOR('',#286,10.);
#83=VECTOR('',#291,10.);
#84=VECTOR('',#294,10.);
#85=VECTOR('',#295,10.);
#86=VECTOR('',#298,10.);
#87=VECTOR('',#299,10.);
#88=VECTOR('',#302,10.);
#89=VECTOR('',#303,10.);
#90=VECTOR('',#306,10.);
#91=VECTOR('',#307,10.);
#92=VECTOR('',#310,10.);
#93=VECTOR('',#311,10.);
#94=VECTOR('',#316,10.);
#95=VECTOR('',#319,10.);
#96=VECTOR('',#320,10.);
#97=VECTOR('',#323,10.);
#98=VERTEX_POINT('',#328);
#99=VERTEX_POINT('',#329);
#100=VERTEX_POINT('',#331);
#101=VERTEX_POINT('',#333);
#102=VERTEX_POINT('',#335);
#103=VERTEX_POINT('',#337);
#104=VERTEX_POINT('',#339);
#105=VERTEX_POINT('',#341);
#106=VERTEX_POINT('',#343);
#107=VERTEX_POINT('',#345);
#108=VERTEX_POINT('',#349);
#109=VERTEX_POINT('',#350);
#110=VERTEX_POINT('',#355);
#111=VERTEX_POINT('',#359);
#112=VERTEX_POINT('',#363);
#113=VERTEX_POINT('',#367);
#114=VERTEX_POINT('',#371);
#115=VERTEX_POINT('',#375);
#116=VERTEX_POINT('',#379);
#117=VERTEX_POINT('',#383);
#118=EDGE_CURVE('',#98,#99,#46,.T.);
#119=EDGE_CURVE('',#100,#98,#47,.T.);
#120=EDGE_CURVE('',#101,#100,#48,.T.);
#121=EDGE_CURVE('',#102,#101,#42,.T.);
#122=EDGE_CURVE('',#103,#102,#49,.T.);
#123=EDGE_CURVE('',#104,#103,#50,.T.);
#124=EDGE_CURVE('',#105,#104,#51,.T.);
#125=EDGE_CURVE('',#106,#105,#52,.T.);
#126=EDGE_CURVE('',#107,#106,#53,.T.);
#127=EDGE_CURVE('',#99,#107,#43,.T.);
#128=EDGE_CURVE('',#108,#109,#54,.T.);
#129=EDGE_CURVE('',#109,#101,#55,.T.);
#130=EDGE_CURVE('',#108,#100,#56,.T.);
#131=EDGE_CURVE('',#109,#110,#44,.T.);
#132=EDGE_CURVE('',#110,#102,#57,.T.);
#133=EDGE_CURVE('',#110,#111,#58,.T.);
#134=EDGE_CURVE('',#111,#103,#59,.T.);
#135=EDGE_CURVE('',#111,#112,#60,.T.);
#136=EDGE_CURVE('',#112,#104,#61,.T.);
#137=EDGE_CURVE('',#112,#113,#62,.T.);
#138=EDGE_CURVE('',#113,#105,#63,.T.);
#139=EDGE_CURVE('',#113,#114,#64,.T.);
#140=EDGE_CURVE('',#114,#106,#65,.T.);
#141=EDGE_CURVE('',#114,#115,#66,.T.);
#142=EDGE_CURVE('',#115,#107,#67,.T.);
#143=EDGE_CURVE('',#115,#116,#45,.T.);
#144=EDGE_CURVE('',#116,#99,#68,.T.);
#145=EDGE_CURVE('',#116,#117,#69,.T.);
#146=EDGE_CURVE('',#98,#117,#70,.T.);
#147=EDGE_CURVE('',#117,#108,#71,.T.);
#148=ORIENTED_EDGE('',*,*,#118,.F.);
#149=ORIENTED_EDGE('',*,*,#119,.F.);
#150=ORIENTED_EDGE('',*,*,#120,.F.);
#151=ORIENTED_EDGE('',*,*,#121,.F.);
#152=ORIENTED_EDGE('',*,*,#122,.F.);
#153=ORIENTED_EDGE('',*,*,#123,.F.);
#154=ORIENTED_EDGE('',*,*,#124,.F.);
#155=ORIENTED_EDGE('',*,*,#125,.F.);
#156=ORIENTED_EDGE('',*,*,#126,.F.);
#157=ORIENTED_EDGE('',*,*,#127,.F.);
#158=ORIENTED_EDGE('',*,*,#128,.T.);
#159=ORIENTED_EDGE('',*,*,#129,.T.);
#160=ORIENTED_EDGE('',*,*,#120,.T.);
#161=ORIENTED_EDGE('',*,*,#130,.F.);
#162=ORIENTED_EDGE('',*,*,#131,.T.);
#163=ORIENTED_EDGE('',*,*,#132,.T.);
#164=ORIENTED_EDGE('',*,*,#121,.T.);
#165=ORIENTED_EDGE('',*,*,#129,.F.);
#166=ORIENTED_EDGE('',*,*,#133,.T.);
#167=ORIENTED_EDGE('',*,*,#134,.T.);
#168=ORIENTED_EDGE('',*,*,#122,.T.);
#169=ORIENTED_EDGE('',*,*,#132,.F.);
#170=ORIENTED_EDGE('',*,*,#135,.T.);
#171=ORIENTED_EDGE('',*,*,#136,.T.);
#172=ORIENTED_EDGE('',*,*,#123,.T.);
#173=ORIENTED_EDGE('',*,*,#134,.F.);
#174=ORIENTED_EDGE('',*,*,#137,.T.);
#175=ORIENTED_EDGE('',*,*,#138,.T.);
#176=ORIENTED_EDGE('',*,*,#124,.T.);
#177=ORIENTED_EDGE('',*,*,#136,.F.);
#178=ORIENTED_EDGE('',*,*,#139,.T.);
#179=ORIENTED_EDGE('',*,*,#140,.T.);
#180=ORIENTED_EDGE('',*,*,#125,.T.);
#181=ORIENTED_EDGE('',*,*,#138,.F.);
#182=ORIENTED_EDGE('',*,*,#141,.T.);
#183=ORIENTED_EDGE('',*,*,#142,.T.);
#184=ORIENTED_EDGE('',*,*,#126,.T.);
#185=ORIENTED_EDGE('',*,*,#140,.F.);
#186=ORIENTED_EDGE('',*,*,#143,.T.);
#187=ORIENTED_EDGE('',*,*,#144,.T.);
#188=ORIENTED_EDGE('',*,*,#127,.T.);
#189=ORIENTED_EDGE('',*,*,#142,.F.);
#190=ORIENTED_EDGE('',*,*,#145,.T.);
#191=ORIENTED_EDGE('',*,*,#146,.F.);
#192=ORIENTED_EDGE('',*,*,#118,.T.);
#193=ORIENTED_EDGE('',*,*,#144,.F.);
#194=ORIENTED_EDGE('',*,*,#147,.T.);
#195=ORIENTED_EDGE('',*,*,#130,.T.);
#196=ORIENTED_EDGE('',*,*,#119,.T.);
#197=ORIENTED_EDGE('',*,*,#146,.T.);
#198=ORIENTED_EDGE('',*,*,#128,.F.);
#199=ORIENTED_EDGE('',*,*,#147,.F.);
#200=ORIENTED_EDGE('',*,*,#145,.F.);
#201=ORIENTED_EDGE('',*,*,#143,.F.);
#202=ORIENTED_EDGE('',*,*,#141,.F.);
#203=ORIENTED_EDGE('',*,*,#139,.F.);
#204=ORIENTED_EDGE('',*,*,#137,.F.);
#205=ORIENTED_EDGE('',*,*,#135,.F.);
#206=ORIENTED_EDGE('',*,*,#133,.F.);
#207=ORIENTED_EDGE('',*,*,#131,.F.);
#208=PLANE('',#250);
#209=PLANE('',#253);
#210=PLANE('',#256);
#211=PLANE('',#257);
#212=PLANE('',#258);
#213=PLANE('',#259);
#214=PLANE('',#260);
#215=PLANE('',#263);
#216=PLANE('',#264);
#217=PLANE('',#265);
#218=ADVANCED_FACE('',(#18),#208,.F.);
#219=ADVANCED_FACE('',(#19),#209,.T.);
#220=ADVANCED_FACE('',(#20),#16,.F.);
#221=ADVANCED_FACE('',(#21),#210,.T.);
#222=ADVANCED_FACE('',(#22),#211,.T.);
#223=ADVANCED_FACE('',(#23),#212,.T.);
#224=ADVANCED_FACE('',(#24),#213,.T.);
#225=ADVANCED_FACE('',(#25),#214,.T.);
#226=ADVANCED_FACE('',(#26),#17,.F.);
#227=ADVANCED_FACE('',(#27),#215,.T.);
#228=ADVANCED_FACE('',(#28),#216,.T.);
#229=ADVANCED_FACE('',(#29),#217,.T.);
#230=CLOSED_SHELL('',(#218,#219,#220,#221,#222,#223,#224,#225,#226,#227,
#228,#229));
#231=DERIVED_UNIT_ELEMENT(#233,1.);
#232=DERIVED_UNIT_ELEMENT(#394,3.);
#233=(
MASS_UNIT()
NAMED_UNIT(*)
SI_UNIT($,.GRAM.)
);
#234=DERIVED_UNIT((#231,#232));
#235=MEASURE_REPRESENTATION_ITEM('density measure',
POSITIVE_RATIO_MEASURE(8.03),#234);
#236=PROPERTY_DEFINITION_REPRESENTATION(#241,#238);
#237=PROPERTY_DEFINITION_REPRESENTATION(#242,#239);
#238=REPRESENTATION('material name',(#240),#391);
#239=REPRESENTATION('density',(#235),#391);
#240=DESCRIPTIVE_REPRESENTATION_ITEM('1.4301','1.4301');
#241=PROPERTY_DEFINITION('material property','material name',#401);
#242=PROPERTY_DEFINITION('material property','density of part',#401);
#243=DATE_TIME_ROLE('creation_date');
#244=APPLIED_DATE_AND_TIME_ASSIGNMENT(#245,#243,(#401));
#245=DATE_AND_TIME(#246,#247);
#246=CALENDAR_DATE(2011,19,10);
#247=LOCAL_TIME(0,0,0.,#248);
#248=COORDINATED_UNIVERSAL_TIME_OFFSET(0,0,.BEHIND.);
#249=AXIS2_PLACEMENT_3D('placement',#326,#266,#267);
#250=AXIS2_PLACEMENT_3D('',#327,#268,#269);
#251=AXIS2_PLACEMENT_3D('',#336,#273,#274);
#252=AXIS2_PLACEMENT_3D('',#347,#280,#281);
#253=AXIS2_PLACEMENT_3D('',#348,#282,#283);
#254=AXIS2_PLACEMENT_3D('',#354,#287,#288);
#255=AXIS2_PLACEMENT_3D('',#356,#289,#290);
#256=AXIS2_PLACEMENT_3D('',#358,#292,#293);
#257=AXIS2_PLACEMENT_3D('',#362,#296,#297);
#258=AXIS2_PLACEMENT_3D('',#366,#300,#301);
#259=AXIS2_PLACEMENT_3D('',#370,#304,#305);
#260=AXIS2_PLACEMENT_3D('',#374,#308,#309);
#261=AXIS2_PLACEMENT_3D('',#378,#312,#313);
#262=AXIS2_PLACEMENT_3D('',#380,#314,#315);
#263=AXIS2_PLACEMENT_3D('',#382,#317,#318);
#264=AXIS2_PLACEMENT_3D('',#386,#321,#322);
#265=AXIS2_PLACEMENT_3D('',#388,#324,#325);
#266=DIRECTION('axis',(0.,0.,1.));
#267=DIRECTION('refdir',(1.,0.,0.));
#268=DIRECTION('center_axis',(0.,0.,1.));
#269=DIRECTION('ref_axis',(1.,0.,0.));
#270=DIRECTION('',(2.46716227694479E-16,1.,0.));
#271=DIRECTION('',(1.,0.,0.));
#272=DIRECTION('',(2.46716227694479E-16,-1.,0.));
#273=DIRECTION('center_axis',(0.,0.,-1.));
#274=DIRECTION('ref_axis',(1.,0.,0.));
#275=DIRECTION('',(1.,0.,0.));
#276=DIRECTION('',(1.98845914858237E-16,-1.,0.));
#277=DIRECTION('',(-1.,0.,0.));
#278=DIRECTION('',(1.98845914858237E-16,1.,0.));
#279=DIRECTION('',(1.,7.40148683083442E-16,0.));
#280=DIRECTION('center_axis',(0.,0.,-1.));
#281=DIRECTION('ref_axis',(0.,1.,0.));
#282=DIRECTION('center_axis',(-1.,-2.46716227694479E-16,0.));
#283=DIRECTION('ref_axis',(0.,0.,1.));
#284=DIRECTION('',(-2.46716227694479E-16,1.,0.));
#285=DIRECTION('',(0.,0.,-1.));
#286=DIRECTION('',(0.,0.,-1.));
#287=DIRECTION('center_axis',(0.,0.,1.));
#288=DIRECTION('ref_axis',(1.,0.,0.));
#289=DIRECTION('center_axis',(0.,0.,1.));
#290=DIRECTION('ref_axis',(1.,0.,0.));
#291=DIRECTION('',(0.,0.,-1.));
#292=DIRECTION('center_axis',(0.,-1.,0.));
#293=DIRECTION('ref_axis',(0.,0.,-1.));
#294=DIRECTION('',(-1.,0.,0.));
#295=DIRECTION('',(0.,0.,-1.));
#296=DIRECTION('center_axis',(-1.,-1.98845914858237E-16,0.));
#297=DIRECTION('ref_axis',(0.,0.,1.));
#298=DIRECTION('',(-1.98845914858237E-16,1.,0.));
#299=DIRECTION('',(0.,0.,-1.));
#300=DIRECTION('center_axis',(0.,1.,0.));
#301=DIRECTION('ref_axis',(0.,0.,1.));
#302=DIRECTION('',(1.,0.,0.));
#303=DIRECTION('',(0.,0.,-1.));
#304=DIRECTION('center_axis',(1.,-1.98845914858237E-16,0.));
#305=DIRECTION('ref_axis',(0.,0.,-1.));
#306=DIRECTION('',(-1.98845914858237E-16,-1.,0.));
#307=DIRECTION('',(0.,0.,-1.));
#308=DIRECTION('center_axis',(7.40148683083441E-16,-1.,0.));
#309=DIRECTION('ref_axis',(0.,0.,-1.));
#310=DIRECTION('',(-1.,-7.40148683083442E-16,0.));
#311=DIRECTION('',(0.,0.,-1.));
#312=DIRECTION('center_axis',(0.,0.,1.));
#313=DIRECTION('ref_axis',(0.,1.,0.));
#314=DIRECTION('center_axis',(0.,0.,1.));
#315=DIRECTION('ref_axis',(0.,1.,0.));
#316=DIRECTION('',(0.,0.,-1.));
#317=DIRECTION('center_axis',(1.,-2.46716227694479E-16,0.));
#318=DIRECTION('ref_axis',(0.,0.,-1.));
#319=DIRECTION('',(-2.46716227694479E-16,-1.,0.));
#320=DIRECTION('',(0.,0.,1.));
#321=DIRECTION('center_axis',(0.,-1.,0.));
#322=DIRECTION('ref_axis',(0.,0.,-1.));
#323=DIRECTION('',(-1.,0.,0.));
#324=DIRECTION('center_axis',(0.,0.,1.));
#325=DIRECTION('ref_axis',(1.,0.,0.));
#326=CARTESIAN_POINT('',(0.,0.,0.));
#327=CARTESIAN_POINT('Origin',(-6.93889390390723E-17,20.2105372147482,-2.5));
#328=CARTESIAN_POINT('',(6.5,-2.22044604925031E-15,-2.5));
#329=CARTESIAN_POINT('',(6.5,4.5,-2.5));
#330=CARTESIAN_POINT('',(6.5,4.5,-2.5));
#331=CARTESIAN_POINT('',(-6.5,-2.22044604925031E-15,-2.5));
#332=CARTESIAN_POINT('',(6.5,-2.22044604925031E-15,-2.5));
#333=CARTESIAN_POINT('',(-6.5,4.5,-2.5));
#334=CARTESIAN_POINT('',(-6.5,-2.22044604925031E-15,-2.5));
#335=CARTESIAN_POINT('',(-8.,6.,-2.5));
#336=CARTESIAN_POINT('Origin',(-8.,4.5,-2.5));
#337=CARTESIAN_POINT('',(-9.49999999999999,6.,-2.5));
#338=CARTESIAN_POINT('',(-8.,6.,-2.5));
#339=CARTESIAN_POINT('',(-9.5,39.5,-2.5));
#340=CARTESIAN_POINT('',(-9.49999999999999,6.,-2.5));
#341=CARTESIAN_POINT('',(9.5,39.5,-2.5));
#342=CARTESIAN_POINT('',(-9.5,39.5,-2.5));
#343=CARTESIAN_POINT('',(9.49999999999999,6.,-2.5));
#344=CARTESIAN_POINT('',(9.5,39.5,-2.5));
#345=CARTESIAN_POINT('',(8.,6.,-2.5));
#346=CARTESIAN_POINT('',(9.49999999999999,6.,-2.5));
#347=CARTESIAN_POINT('Origin',(8.,4.5,-2.5));
#348=CARTESIAN_POINT('Origin',(-6.5,-2.22044604925031E-15,0.));
#349=CARTESIAN_POINT('',(-6.5,-2.22044604925031E-15,2.5));
#350=CARTESIAN_POINT('',(-6.5,4.5,2.5));
#351=CARTESIAN_POINT('',(-6.5,-2.22044604925031E-15,2.5));
#352=CARTESIAN_POINT('',(-6.5,4.5,0.));
#353=CARTESIAN_POINT('',(-6.5,-2.22044604925031E-15,0.));
#354=CARTESIAN_POINT('Origin',(-8.,4.5,0.));
#355=CARTESIAN_POINT('',(-8.,6.,2.5));
#356=CARTESIAN_POINT('Origin',(-8.,4.5,2.5));
#357=CARTESIAN_POINT('',(-8.,6.,0.));
#358=CARTESIAN_POINT('Origin',(-8.,6.,0.));
#359=CARTESIAN_POINT('',(-9.49999999999999,6.,2.5));
#360=CARTESIAN_POINT('',(-8.,6.,2.5));
#361=CARTESIAN_POINT('',(-9.49999999999999,6.,0.));
#362=CARTESIAN_POINT('Origin',(-9.49999999999999,6.,0.));
#363=CARTESIAN_POINT('',(-9.5,39.5,2.5));
#364=CARTESIAN_POINT('',(-9.49999999999999,6.,2.5));
#365=CARTESIAN_POINT('',(-9.5,39.5,0.));
#366=CARTESIAN_POINT('Origin',(-9.5,39.5,0.));
#367=CARTESIAN_POINT('',(9.5,39.5,2.5));
#368=CARTESIAN_POINT('',(-9.5,39.5,2.5));
#369=CARTESIAN_POINT('',(9.5,39.5,0.));
#370=CARTESIAN_POINT('Origin',(9.5,39.5,0.));
#371=CARTESIAN_POINT('',(9.49999999999999,6.,2.5));
#372=CARTESIAN_POINT('',(9.5,39.5,2.5));
#373=CARTESIAN_POINT('',(9.49999999999999,6.,0.));
#374=CARTESIAN_POINT('Origin',(9.49999999999999,6.,0.));
#375=CARTESIAN_POINT('',(8.,6.,2.5));
#376=CARTESIAN_POINT('',(9.49999999999999,6.,2.5));
#377=CARTESIAN_POINT('',(8.,6.,0.));
#378=CARTESIAN_POINT('Origin',(8.,4.5,0.));
#379=CARTESIAN_POINT('',(6.5,4.5,2.5));
#380=CARTESIAN_POINT('Origin',(8.,4.5,2.5));
#381=CARTESIAN_POINT('',(6.5,4.5,0.));
#382=CARTESIAN_POINT('Origin',(6.5,4.5,0.));
#383=CARTESIAN_POINT('',(6.5,-2.22044604925031E-15,2.5));
#384=CARTESIAN_POINT('',(6.5,4.5,2.5));
#385=CARTESIAN_POINT('',(6.5,-2.22044604925031E-15,0.));
#386=CARTESIAN_POINT('Origin',(6.5,-2.22044604925031E-15,0.));
#387=CARTESIAN_POINT('',(6.5,-2.22044604925031E-15,2.5));
#388=CARTESIAN_POINT('Origin',(6.93889390390723E-17,20.2105372147482,2.5));
#389=UNCERTAINTY_MEASURE_WITH_UNIT(LENGTH_MEASURE(0.01),#393,
'DISTANCE_ACCURACY_VALUE',
'Maximum model space distance between geometric entities at asserted c
onnectivities');
#390=UNCERTAINTY_MEASURE_WITH_UNIT(LENGTH_MEASURE(0.01),#393,
'DISTANCE_ACCURACY_VALUE',
'Maximum model space distance between geometric entities at asserted c
onnectivities');
#391=(
GEOMETRIC_REPRESENTATION_CONTEXT(3)
GLOBAL_UNCERTAINTY_ASSIGNED_CONTEXT((#389))
GLOBAL_UNIT_ASSIGNED_CONTEXT((#393,#395,#396))
REPRESENTATION_CONTEXT('','3D')
);
#392=(
GEOMETRIC_REPRESENTATION_CONTEXT(3)
GLOBAL_UNCERTAINTY_ASSIGNED_CONTEXT((#390))
GLOBAL_UNIT_ASSIGNED_CONTEXT((#393,#395,#396))
REPRESENTATION_CONTEXT('','3D')
);
#393=(
LENGTH_UNIT()
NAMED_UNIT(*)
SI_UNIT(.MILLI.,.METRE.)
);
#394=(
LENGTH_UNIT()
NAMED_UNIT(*)
SI_UNIT(.CENTI.,.METRE.)
);
#395=(
NAMED_UNIT(*)
PLANE_ANGLE_UNIT()
SI_UNIT($,.RADIAN.)
);
#396=(
NAMED_UNIT(*)
SI_UNIT($,.STERADIAN.)
SOLID_ANGLE_UNIT()
);
#397=SHAPE_DEFINITION_REPRESENTATION(#398,#399);
#398=PRODUCT_DEFINITION_SHAPE('',$,#401);
#399=SHAPE_REPRESENTATION('',(#249),#391);
#400=PRODUCT_DEFINITION_CONTEXT('part definition',#405,'design');
#401=PRODUCT_DEFINITION('WKZ-0011','E_3_01_03_00_00_WKZ-0011',#402,#400);
#402=PRODUCT_DEFINITION_FORMATION('',$,#407);
#403=PRODUCT_RELATED_PRODUCT_CATEGORY('E_3_01_03_00_00_WKZ-0011',
'E_3_01_03_00_00_WKZ-0011',(#407));
#404=APPLICATION_PROTOCOL_DEFINITION('international standard',
'automotive_design',2009,#405);
#405=APPLICATION_CONTEXT(
'Core Data for Automotive Mechanical Design Process');
#406=PRODUCT_CONTEXT('part definition',#405,'mechanical');
#407=PRODUCT('WKZ-0011','E_3_01_03_00_00_WKZ-0011',$,(#406));
#408=PRESENTATION_STYLE_ASSIGNMENT((#410));
#409=PRESENTATION_STYLE_ASSIGNMENT((#411));
#410=SURFACE_STYLE_USAGE(.BOTH.,#414);
#411=SURFACE_STYLE_USAGE(.BOTH.,#415);
#412=SURFACE_STYLE_RENDERING_WITH_PROPERTIES($,#422,(#413));
#413=SURFACE_STYLE_TRANSPARENT(0.);
#414=SURFACE_SIDE_STYLE('',(#416,#412));
#415=SURFACE_SIDE_STYLE('',(#417));
#416=SURFACE_STYLE_FILL_AREA(#418);
#417=SURFACE_STYLE_FILL_AREA(#419);
#418=FILL_AREA_STYLE('',(#420));
#419=FILL_AREA_STYLE('',(#421));
#420=FILL_AREA_STYLE_COLOUR('',#422);
#421=FILL_AREA_STYLE_COLOUR('',#423);
#422=COLOUR_RGB('',0.92156862745098,0.92156862745098,0.92156862745098);
#423=COLOUR_RGB('',0.16078431372549,0.16078431372549,0.16078431372549);
ENDSEC;
END-ISO-10303-21;
