ISO-10303-21;
HEADER;
/* Generated by software containing ST-Developer
 * from STEP Tools, Inc. (www.steptools.com) 
 */

FILE_DESCRIPTION(
/* description */ (''),
/* implementation_level */ '2;1');

FILE_NAME(
/* name */ 
'H:\\Eigene Dateien\\CAD Workspace Vault\\CAD\\E_3_Nocken\\E_3_01_Aufs
chwei\X\DFnocke\\01_Rund\\E_3_01_01_02_00_WKZ-0128.stp',
/* time_stamp */ '2024-05-16T11:11:17+02:00',
/* author */ ('dfischer'),
/* organization */ (''),
/* preprocessor_version */ 'ST-DEVELOPER v18.1',
/* originating_system */ 'Autodesk Inventor 2021',
/* authorisation */ '');

FILE_SCHEMA (('AUTOMOTIVE_DESIGN { 1 0 10303 214 3 1 1 }'));
ENDSEC;

DATA;
#10=MECHANICAL_DESIGN_GEOMETRIC_PRESENTATION_REPRESENTATION('',(#15,#16,
#17),#391);
#11=SHAPE_REPRESENTATION_RELATIONSHIP('SRR','None',#398,#12);
#12=ADVANCED_BREP_SHAPE_REPRESENTATION('',(#13),#390);
#13=MANIFOLD_SOLID_BREP('Volumenk\X\F6rper1',#233);
#14=CYLINDRICAL_SURFACE('',#260,3.00000000000001);
#15=STYLED_ITEM('',(#408),#225);
#16=STYLED_ITEM('',(#407),#231);
#17=STYLED_ITEM('',(#407),#13);
#18=FACE_OUTER_BOUND('',#30,.T.);
#19=FACE_OUTER_BOUND('',#31,.T.);
#20=FACE_OUTER_BOUND('',#32,.T.);
#21=FACE_OUTER_BOUND('',#33,.T.);
#22=FACE_OUTER_BOUND('',#34,.T.);
#23=FACE_OUTER_BOUND('',#35,.T.);
#24=FACE_OUTER_BOUND('',#36,.T.);
#25=FACE_OUTER_BOUND('',#37,.T.);
#26=FACE_OUTER_BOUND('',#38,.T.);
#27=FACE_OUTER_BOUND('',#39,.T.);
#28=FACE_OUTER_BOUND('',#40,.T.);
#29=FACE_OUTER_BOUND('',#41,.T.);
#30=EDGE_LOOP('',(#150,#151,#152,#153,#154,#155,#156,#157,#158,#159));
#31=EDGE_LOOP('',(#160,#161,#162,#163));
#32=EDGE_LOOP('',(#164,#165,#166,#167));
#33=EDGE_LOOP('',(#168,#169,#170,#171));
#34=EDGE_LOOP('',(#172,#173,#174,#175));
#35=EDGE_LOOP('',(#176,#177,#178,#179));
#36=EDGE_LOOP('',(#180,#181,#182,#183));
#37=EDGE_LOOP('',(#184,#185,#186,#187));
#38=EDGE_LOOP('',(#188,#189,#190,#191));
#39=EDGE_LOOP('',(#192,#193,#194,#195));
#40=EDGE_LOOP('',(#196,#197,#198,#199));
#41=EDGE_LOOP('',(#200,#201,#202,#203,#204,#205,#206,#207,#208,#209));
#42=CIRCLE('',#254,3.00000000000001);
#43=CIRCLE('',#261,3.00000000000001);
#44=LINE('',#329,#72);
#45=LINE('',#331,#73);
#46=LINE('',#333,#74);
#47=LINE('',#335,#75);
#48=LINE('',#337,#76);
#49=LINE('',#339,#77);
#50=LINE('',#341,#78);
#51=LINE('',#345,#79);
#52=LINE('',#346,#80);
#53=LINE('',#350,#81);
#54=LINE('',#351,#82);
#55=LINE('',#352,#83);
#56=LINE('',#355,#84);
#57=LINE('',#356,#85);
#58=LINE('',#359,#86);
#59=LINE('',#360,#87);
#60=LINE('',#363,#88);
#61=LINE('',#364,#89);
#62=LINE('',#367,#90);
#63=LINE('',#368,#91);
#64=LINE('',#372,#92);
#65=LINE('',#375,#93);
#66=LINE('',#376,#94);
#67=LINE('',#379,#95);
#68=LINE('',#380,#96);
#69=LINE('',#383,#97);
#70=LINE('',#384,#98);
#71=LINE('',#386,#99);
#72=VECTOR('',#271,10.);
#73=VECTOR('',#272,10.);
#74=VECTOR('',#273,10.);
#75=VECTOR('',#274,10.);
#76=VECTOR('',#275,10.);
#77=VECTOR('',#276,10.);
#78=VECTOR('',#277,10.);
#79=VECTOR('',#280,10.);
#80=VECTOR('',#281,10.);
#81=VECTOR('',#284,10.);
#82=VECTOR('',#285,10.);
#83=VECTOR('',#286,10.);
#84=VECTOR('',#289,10.);
#85=VECTOR('',#290,10.);
#86=VECTOR('',#293,10.);
#87=VECTOR('',#294,10.);
#88=VECTOR('',#297,10.);
#89=VECTOR('',#298,10.);
#90=VECTOR('',#301,10.);
#91=VECTOR('',#302,10.);
#92=VECTOR('',#307,10.);
#93=VECTOR('',#310,10.);
#94=VECTOR('',#311,10.);
#95=VECTOR('',#314,10.);
#96=VECTOR('',#315,10.);
#97=VECTOR('',#318,10.);
#98=VECTOR('',#319,10.);
#99=VECTOR('',#322,10.);
#100=VERTEX_POINT('',#327);
#101=VERTEX_POINT('',#328);
#102=VERTEX_POINT('',#330);
#103=VERTEX_POINT('',#332);
#104=VERTEX_POINT('',#334);
#105=VERTEX_POINT('',#336);
#106=VERTEX_POINT('',#338);
#107=VERTEX_POINT('',#340);
#108=VERTEX_POINT('',#342);
#109=VERTEX_POINT('',#344);
#110=VERTEX_POINT('',#348);
#111=VERTEX_POINT('',#349);
#112=VERTEX_POINT('',#354);
#113=VERTEX_POINT('',#358);
#114=VERTEX_POINT('',#362);
#115=VERTEX_POINT('',#366);
#116=VERTEX_POINT('',#370);
#117=VERTEX_POINT('',#374);
#118=VERTEX_POINT('',#378);
#119=VERTEX_POINT('',#382);
#120=EDGE_CURVE('',#100,#101,#44,.T.);
#121=EDGE_CURVE('',#102,#100,#45,.T.);
#122=EDGE_CURVE('',#103,#102,#46,.T.);
#123=EDGE_CURVE('',#104,#103,#47,.T.);
#124=EDGE_CURVE('',#105,#104,#48,.T.);
#125=EDGE_CURVE('',#106,#105,#49,.T.);
#126=EDGE_CURVE('',#107,#106,#50,.T.);
#127=EDGE_CURVE('',#108,#107,#42,.T.);
#128=EDGE_CURVE('',#109,#108,#51,.T.);
#129=EDGE_CURVE('',#101,#109,#52,.T.);
#130=EDGE_CURVE('',#110,#111,#53,.T.);
#131=EDGE_CURVE('',#111,#103,#54,.T.);
#132=EDGE_CURVE('',#110,#102,#55,.T.);
#133=EDGE_CURVE('',#111,#112,#56,.T.);
#134=EDGE_CURVE('',#112,#104,#57,.T.);
#135=EDGE_CURVE('',#112,#113,#58,.T.);
#136=EDGE_CURVE('',#113,#105,#59,.T.);
#137=EDGE_CURVE('',#113,#114,#60,.T.);
#138=EDGE_CURVE('',#114,#106,#61,.T.);
#139=EDGE_CURVE('',#114,#115,#62,.T.);
#140=EDGE_CURVE('',#115,#107,#63,.T.);
#141=EDGE_CURVE('',#115,#116,#43,.T.);
#142=EDGE_CURVE('',#116,#108,#64,.T.);
#143=EDGE_CURVE('',#116,#117,#65,.T.);
#144=EDGE_CURVE('',#117,#109,#66,.T.);
#145=EDGE_CURVE('',#117,#118,#67,.T.);
#146=EDGE_CURVE('',#118,#101,#68,.T.);
#147=EDGE_CURVE('',#118,#119,#69,.T.);
#148=EDGE_CURVE('',#100,#119,#70,.T.);
#149=EDGE_CURVE('',#119,#110,#71,.T.);
#150=ORIENTED_EDGE('',*,*,#120,.F.);
#151=ORIENTED_EDGE('',*,*,#121,.F.);
#152=ORIENTED_EDGE('',*,*,#122,.F.);
#153=ORIENTED_EDGE('',*,*,#123,.F.);
#154=ORIENTED_EDGE('',*,*,#124,.F.);
#155=ORIENTED_EDGE('',*,*,#125,.F.);
#156=ORIENTED_EDGE('',*,*,#126,.F.);
#157=ORIENTED_EDGE('',*,*,#127,.F.);
#158=ORIENTED_EDGE('',*,*,#128,.F.);
#159=ORIENTED_EDGE('',*,*,#129,.F.);
#160=ORIENTED_EDGE('',*,*,#130,.T.);
#161=ORIENTED_EDGE('',*,*,#131,.T.);
#162=ORIENTED_EDGE('',*,*,#122,.T.);
#163=ORIENTED_EDGE('',*,*,#132,.F.);
#164=ORIENTED_EDGE('',*,*,#133,.T.);
#165=ORIENTED_EDGE('',*,*,#134,.T.);
#166=ORIENTED_EDGE('',*,*,#123,.T.);
#167=ORIENTED_EDGE('',*,*,#131,.F.);
#168=ORIENTED_EDGE('',*,*,#135,.T.);
#169=ORIENTED_EDGE('',*,*,#136,.T.);
#170=ORIENTED_EDGE('',*,*,#124,.T.);
#171=ORIENTED_EDGE('',*,*,#134,.F.);
#172=ORIENTED_EDGE('',*,*,#137,.T.);
#173=ORIENTED_EDGE('',*,*,#138,.T.);
#174=ORIENTED_EDGE('',*,*,#125,.T.);
#175=ORIENTED_EDGE('',*,*,#136,.F.);
#176=ORIENTED_EDGE('',*,*,#139,.T.);
#177=ORIENTED_EDGE('',*,*,#140,.T.);
#178=ORIENTED_EDGE('',*,*,#126,.T.);
#179=ORIENTED_EDGE('',*,*,#138,.F.);
#180=ORIENTED_EDGE('',*,*,#141,.T.);
#181=ORIENTED_EDGE('',*,*,#142,.T.);
#182=ORIENTED_EDGE('',*,*,#127,.T.);
#183=ORIENTED_EDGE('',*,*,#140,.F.);
#184=ORIENTED_EDGE('',*,*,#143,.T.);
#185=ORIENTED_EDGE('',*,*,#144,.T.);
#186=ORIENTED_EDGE('',*,*,#128,.T.);
#187=ORIENTED_EDGE('',*,*,#142,.F.);
#188=ORIENTED_EDGE('',*,*,#145,.T.);
#189=ORIENTED_EDGE('',*,*,#146,.T.);
#190=ORIENTED_EDGE('',*,*,#129,.T.);
#191=ORIENTED_EDGE('',*,*,#144,.F.);
#192=ORIENTED_EDGE('',*,*,#147,.T.);
#193=ORIENTED_EDGE('',*,*,#148,.F.);
#194=ORIENTED_EDGE('',*,*,#120,.T.);
#195=ORIENTED_EDGE('',*,*,#146,.F.);
#196=ORIENTED_EDGE('',*,*,#149,.T.);
#197=ORIENTED_EDGE('',*,*,#132,.T.);
#198=ORIENTED_EDGE('',*,*,#121,.T.);
#199=ORIENTED_EDGE('',*,*,#148,.T.);
#200=ORIENTED_EDGE('',*,*,#130,.F.);
#201=ORIENTED_EDGE('',*,*,#149,.F.);
#202=ORIENTED_EDGE('',*,*,#147,.F.);
#203=ORIENTED_EDGE('',*,*,#145,.F.);
#204=ORIENTED_EDGE('',*,*,#143,.F.);
#205=ORIENTED_EDGE('',*,*,#141,.F.);
#206=ORIENTED_EDGE('',*,*,#139,.F.);
#207=ORIENTED_EDGE('',*,*,#137,.F.);
#208=ORIENTED_EDGE('',*,*,#135,.F.);
#209=ORIENTED_EDGE('',*,*,#133,.F.);
#210=PLANE('',#253);
#211=PLANE('',#255);
#212=PLANE('',#256);
#213=PLANE('',#257);
#214=PLANE('',#258);
#215=PLANE('',#259);
#216=PLANE('',#262);
#217=PLANE('',#263);
#218=PLANE('',#264);
#219=PLANE('',#265);
#220=PLANE('',#266);
#221=ADVANCED_FACE('',(#18),#210,.F.);
#222=ADVANCED_FACE('',(#19),#211,.T.);
#223=ADVANCED_FACE('',(#20),#212,.T.);
#224=ADVANCED_FACE('',(#21),#213,.T.);
#225=ADVANCED_FACE('',(#22),#214,.T.);
#226=ADVANCED_FACE('',(#23),#215,.T.);
#227=ADVANCED_FACE('',(#24),#14,.T.);
#228=ADVANCED_FACE('',(#25),#216,.T.);
#229=ADVANCED_FACE('',(#26),#217,.T.);
#230=ADVANCED_FACE('',(#27),#218,.T.);
#231=ADVANCED_FACE('',(#28),#219,.T.);
#232=ADVANCED_FACE('',(#29),#220,.T.);
#233=CLOSED_SHELL('',(#221,#222,#223,#224,#225,#226,#227,#228,#229,#230,
#231,#232));
#234=DERIVED_UNIT_ELEMENT(#236,1.);
#235=DERIVED_UNIT_ELEMENT(#393,3.);
#236=(
MASS_UNIT()
NAMED_UNIT(*)
SI_UNIT($,.GRAM.)
);
#237=DERIVED_UNIT((#234,#235));
#238=MEASURE_REPRESENTATION_ITEM('density measure',
POSITIVE_RATIO_MEASURE(8.03),#237);
#239=PROPERTY_DEFINITION_REPRESENTATION(#244,#241);
#240=PROPERTY_DEFINITION_REPRESENTATION(#245,#242);
#241=REPRESENTATION('material name',(#243),#390);
#242=REPRESENTATION('density',(#238),#390);
#243=DESCRIPTIVE_REPRESENTATION_ITEM('1.4301','1.4301');
#244=PROPERTY_DEFINITION('material property','material name',#400);
#245=PROPERTY_DEFINITION('material property','density of part',#400);
#246=DATE_TIME_ROLE('creation_date');
#247=APPLIED_DATE_AND_TIME_ASSIGNMENT(#248,#246,(#400));
#248=DATE_AND_TIME(#249,#250);
#249=CALENDAR_DATE(2011,18,10);
#250=LOCAL_TIME(0,0,0.,#251);
#251=COORDINATED_UNIVERSAL_TIME_OFFSET(0,0,.BEHIND.);
#252=AXIS2_PLACEMENT_3D('placement',#325,#267,#268);
#253=AXIS2_PLACEMENT_3D('',#326,#269,#270);
#254=AXIS2_PLACEMENT_3D('',#343,#278,#279);
#255=AXIS2_PLACEMENT_3D('',#347,#282,#283);
#256=AXIS2_PLACEMENT_3D('',#353,#287,#288);
#257=AXIS2_PLACEMENT_3D('',#357,#291,#292);
#258=AXIS2_PLACEMENT_3D('',#361,#295,#296);
#259=AXIS2_PLACEMENT_3D('',#365,#299,#300);
#260=AXIS2_PLACEMENT_3D('',#369,#303,#304);
#261=AXIS2_PLACEMENT_3D('',#371,#305,#306);
#262=AXIS2_PLACEMENT_3D('',#373,#308,#309);
#263=AXIS2_PLACEMENT_3D('',#377,#312,#313);
#264=AXIS2_PLACEMENT_3D('',#381,#316,#317);
#265=AXIS2_PLACEMENT_3D('',#385,#320,#321);
#266=AXIS2_PLACEMENT_3D('',#387,#323,#324);
#267=DIRECTION('axis',(0.,0.,1.));
#268=DIRECTION('refdir',(1.,0.,0.));
#269=DIRECTION('center_axis',(0.,0.,1.));
#270=DIRECTION('ref_axis',(1.,0.,0.));
#271=DIRECTION('',(-2.22044604925031E-16,1.,0.));
#272=DIRECTION('',(1.,-4.93038065763132E-32,0.));
#273=DIRECTION('',(0.,-1.,0.));
#274=DIRECTION('',(1.,0.,0.));
#275=DIRECTION('',(0.,1.,0.));
#276=DIRECTION('',(1.,0.,0.));
#277=DIRECTION('',(0.,-1.,0.));
#278=DIRECTION('center_axis',(0.,0.,1.));
#279=DIRECTION('ref_axis',(0.,-1.,0.));
#280=DIRECTION('',(-1.,1.11022302462516E-15,0.));
#281=DIRECTION('',(-0.532171545218346,0.846636549211005,0.));
#282=DIRECTION('center_axis',(-1.,0.,0.));
#283=DIRECTION('ref_axis',(0.,0.,1.));
#284=DIRECTION('',(0.,1.,0.));
#285=DIRECTION('',(0.,0.,-1.));
#286=DIRECTION('',(0.,0.,-1.));
#287=DIRECTION('center_axis',(0.,-1.,0.));
#288=DIRECTION('ref_axis',(0.,0.,-1.));
#289=DIRECTION('',(-1.,0.,0.));
#290=DIRECTION('',(0.,0.,-1.));
#291=DIRECTION('center_axis',(1.,0.,0.));
#292=DIRECTION('ref_axis',(0.,0.,-1.));
#293=DIRECTION('',(0.,-1.,0.));
#294=DIRECTION('',(0.,0.,-1.));
#295=DIRECTION('center_axis',(0.,-1.,0.));
#296=DIRECTION('ref_axis',(0.,0.,-1.));
#297=DIRECTION('',(-1.,0.,0.));
#298=DIRECTION('',(0.,0.,-1.));
#299=DIRECTION('center_axis',(-1.,0.,0.));
#300=DIRECTION('ref_axis',(0.,0.,1.));
#301=DIRECTION('',(0.,1.,0.));
#302=DIRECTION('',(0.,0.,-1.));
#303=DIRECTION('center_axis',(0.,0.,1.));
#304=DIRECTION('ref_axis',(0.,-1.,0.));
#305=DIRECTION('center_axis',(0.,0.,-1.));
#306=DIRECTION('ref_axis',(0.,-1.,0.));
#307=DIRECTION('',(0.,0.,-1.));
#308=DIRECTION('center_axis',(1.11022302462516E-15,1.,0.));
#309=DIRECTION('ref_axis',(0.,0.,1.));
#310=DIRECTION('',(1.,-1.11022302462516E-15,0.));
#311=DIRECTION('',(0.,0.,-1.));
#312=DIRECTION('center_axis',(0.846636549211005,0.532171545218346,0.));
#313=DIRECTION('ref_axis',(0.,0.,-1.));
#314=DIRECTION('',(0.532171545218346,-0.846636549211005,0.));
#315=DIRECTION('',(0.,0.,-1.));
#316=DIRECTION('center_axis',(1.,2.22044604925031E-16,0.));
#317=DIRECTION('ref_axis',(0.,0.,-1.));
#318=DIRECTION('',(2.22044604925031E-16,-1.,0.));
#319=DIRECTION('',(0.,0.,1.));
#320=DIRECTION('center_axis',(-4.93038065763132E-32,-1.,0.));
#321=DIRECTION('ref_axis',(0.,0.,-1.));
#322=DIRECTION('',(-1.,4.93038065763132E-32,0.));
#323=DIRECTION('center_axis',(0.,0.,1.));
#324=DIRECTION('ref_axis',(1.,0.,0.));
#325=CARTESIAN_POINT('',(0.,0.,0.));
#326=CARTESIAN_POINT('Origin',(-1.48548663187218,9.23831091868498,-12.5));
#327=CARTESIAN_POINT('',(9.,0.,-12.5));
#328=CARTESIAN_POINT('',(9.,5.,-12.5));
#329=CARTESIAN_POINT('',(9.,5.,-12.5));
#330=CARTESIAN_POINT('',(4.,2.46519032881566E-31,-12.5));
#331=CARTESIAN_POINT('',(9.,0.,-12.5));
#332=CARTESIAN_POINT('',(4.,1.5,-12.5));
#333=CARTESIAN_POINT('',(4.,2.46519032881566E-31,-12.5));
#334=CARTESIAN_POINT('',(-4.,1.5,-12.5));
#335=CARTESIAN_POINT('',(4.,1.5,-12.5));
#336=CARTESIAN_POINT('',(-4.,0.,-12.5));
#337=CARTESIAN_POINT('',(-4.,1.5,-12.5));
#338=CARTESIAN_POINT('',(-9.,0.,-12.5));
#339=CARTESIAN_POINT('',(-4.,0.,-12.5));
#340=CARTESIAN_POINT('',(-9.,19.5,-12.5));
#341=CARTESIAN_POINT('',(-9.,0.,-12.5));
#342=CARTESIAN_POINT('',(-6.,22.5,-12.5));
#343=CARTESIAN_POINT('Origin',(-6.,19.5,-12.5));
#344=CARTESIAN_POINT('',(-2.,22.5,-12.5));
#345=CARTESIAN_POINT('',(-6.,22.5,-12.5));
#346=CARTESIAN_POINT('',(-2.,22.5,-12.5));
#347=CARTESIAN_POINT('Origin',(4.,2.46519032881566E-31,0.));
#348=CARTESIAN_POINT('',(4.,2.46519032881566E-31,12.5));
#349=CARTESIAN_POINT('',(4.,1.5,12.5));
#350=CARTESIAN_POINT('',(4.,2.46519032881566E-31,12.5));
#351=CARTESIAN_POINT('',(4.,1.5,0.));
#352=CARTESIAN_POINT('',(4.,2.46519032881566E-31,0.));
#353=CARTESIAN_POINT('Origin',(4.,1.5,0.));
#354=CARTESIAN_POINT('',(-4.,1.5,12.5));
#355=CARTESIAN_POINT('',(4.,1.5,12.5));
#356=CARTESIAN_POINT('',(-4.,1.5,0.));
#357=CARTESIAN_POINT('Origin',(-4.,1.5,0.));
#358=CARTESIAN_POINT('',(-4.,0.,12.5));
#359=CARTESIAN_POINT('',(-4.,1.5,12.5));
#360=CARTESIAN_POINT('',(-4.,0.,0.));
#361=CARTESIAN_POINT('Origin',(-4.,0.,0.));
#362=CARTESIAN_POINT('',(-9.,0.,12.5));
#363=CARTESIAN_POINT('',(-4.,0.,12.5));
#364=CARTESIAN_POINT('',(-9.,0.,0.));
#365=CARTESIAN_POINT('Origin',(-9.,0.,0.));
#366=CARTESIAN_POINT('',(-9.,19.5,12.5));
#367=CARTESIAN_POINT('',(-9.,0.,12.5));
#368=CARTESIAN_POINT('',(-9.,19.5,0.));
#369=CARTESIAN_POINT('Origin',(-6.,19.5,0.));
#370=CARTESIAN_POINT('',(-6.,22.5,12.5));
#371=CARTESIAN_POINT('Origin',(-6.,19.5,12.5));
#372=CARTESIAN_POINT('',(-6.,22.5,0.));
#373=CARTESIAN_POINT('Origin',(-6.,22.5,0.));
#374=CARTESIAN_POINT('',(-2.,22.5,12.5));
#375=CARTESIAN_POINT('',(-6.,22.5,12.5));
#376=CARTESIAN_POINT('',(-2.,22.5,0.));
#377=CARTESIAN_POINT('Origin',(-2.,22.5,0.));
#378=CARTESIAN_POINT('',(9.,5.,12.5));
#379=CARTESIAN_POINT('',(-2.,22.5,12.5));
#380=CARTESIAN_POINT('',(9.,5.,0.));
#381=CARTESIAN_POINT('Origin',(9.,5.,0.));
#382=CARTESIAN_POINT('',(9.,0.,12.5));
#383=CARTESIAN_POINT('',(9.,5.,12.5));
#384=CARTESIAN_POINT('',(9.,0.,0.));
#385=CARTESIAN_POINT('Origin',(9.,0.,0.));
#386=CARTESIAN_POINT('',(9.,0.,12.5));
#387=CARTESIAN_POINT('Origin',(-1.48548663187218,9.23831091868498,12.5));
#388=UNCERTAINTY_MEASURE_WITH_UNIT(LENGTH_MEASURE(0.01),#392,
'DISTANCE_ACCURACY_VALUE',
'Maximum model space distance between geometric entities at asserted c
onnectivities');
#389=UNCERTAINTY_MEASURE_WITH_UNIT(LENGTH_MEASURE(0.01),#392,
'DISTANCE_ACCURACY_VALUE',
'Maximum model space distance between geometric entities at asserted c
onnectivities');
#390=(
GEOMETRIC_REPRESENTATION_CONTEXT(3)
GLOBAL_UNCERTAINTY_ASSIGNED_CONTEXT((#388))
GLOBAL_UNIT_ASSIGNED_CONTEXT((#392,#394,#395))
REPRESENTATION_CONTEXT('','3D')
);
#391=(
GEOMETRIC_REPRESENTATION_CONTEXT(3)
GLOBAL_UNCERTAINTY_ASSIGNED_CONTEXT((#389))
GLOBAL_UNIT_ASSIGNED_CONTEXT((#392,#394,#395))
REPRESENTATION_CONTEXT('','3D')
);
#392=(
LENGTH_UNIT()
NAMED_UNIT(*)
SI_UNIT(.MILLI.,.METRE.)
);
#393=(
LENGTH_UNIT()
NAMED_UNIT(*)
SI_UNIT(.CENTI.,.METRE.)
);
#394=(
NAMED_UNIT(*)
PLANE_ANGLE_UNIT()
SI_UNIT($,.RADIAN.)
);
#395=(
NAMED_UNIT(*)
SI_UNIT($,.STERADIAN.)
SOLID_ANGLE_UNIT()
);
#396=SHAPE_DEFINITION_REPRESENTATION(#397,#398);
#397=PRODUCT_DEFINITION_SHAPE('',$,#400);
#398=SHAPE_REPRESENTATION('',(#252),#390);
#399=PRODUCT_DEFINITION_CONTEXT('part definition',#404,'design');
#400=PRODUCT_DEFINITION('WKZ-0128','E_3_01_01_02_00_WKZ-0128',#401,#399);
#401=PRODUCT_DEFINITION_FORMATION('',$,#406);
#402=PRODUCT_RELATED_PRODUCT_CATEGORY('E_3_01_01_02_00_WKZ-0128',
'E_3_01_01_02_00_WKZ-0128',(#406));
#403=APPLICATION_PROTOCOL_DEFINITION('international standard',
'automotive_design',2009,#404);
#404=APPLICATION_CONTEXT(
'Core Data for Automotive Mechanical Design Process');
#405=PRODUCT_CONTEXT('part definition',#404,'mechanical');
#406=PRODUCT('WKZ-0128','E_3_01_01_02_00_WKZ-0128',$,(#405));
#407=PRESENTATION_STYLE_ASSIGNMENT((#409));
#408=PRESENTATION_STYLE_ASSIGNMENT((#410));
#409=SURFACE_STYLE_USAGE(.BOTH.,#413);
#410=SURFACE_STYLE_USAGE(.BOTH.,#414);
#411=SURFACE_STYLE_RENDERING_WITH_PROPERTIES($,#421,(#412));
#412=SURFACE_STYLE_TRANSPARENT(0.);
#413=SURFACE_SIDE_STYLE('',(#415,#411));
#414=SURFACE_SIDE_STYLE('',(#416));
#415=SURFACE_STYLE_FILL_AREA(#417);
#416=SURFACE_STYLE_FILL_AREA(#418);
#417=FILL_AREA_STYLE('',(#419));
#418=FILL_AREA_STYLE('',(#420));
#419=FILL_AREA_STYLE_COLOUR('',#421);
#420=FILL_AREA_STYLE_COLOUR('',#422);
#421=COLOUR_RGB('',0.92156862745098,0.92156862745098,0.92156862745098);
#422=COLOUR_RGB('',0.16078431372549,0.16078431372549,0.16078431372549);
ENDSEC;
END-ISO-10303-21;
