ISO-10303-21;
HEADER;
/* Generated by software containing ST-Developer
 * from STEP Tools, Inc. (www.steptools.com) 
 */

FILE_DESCRIPTION(
/* description */ (''),
/* implementation_level */ '2;1');

FILE_NAME(
/* name */ 
'H:\\Eigene Dateien\\CAD Workspace Vault\\CAD\\E_3_Nocken\\E_3_01_Aufs
chwei\X\DFnocke\\01_Rund\\E_3_01_01_02_00_WKZ-0023.stp',
/* time_stamp */ '2024-05-16T11:13:05+02:00',
/* author */ ('dfischer'),
/* organization */ (''),
/* preprocessor_version */ 'ST-DEVELOPER v18.1',
/* originating_system */ 'Autodesk Inventor 2021',
/* authorisation */ '');

FILE_SCHEMA (('AUTOMOTIVE_DESIGN { 1 0 10303 214 3 1 1 }'));
ENDSEC;

DATA;
#10=MECHANICAL_DESIGN_GEOMETRIC_PRESENTATION_REPRESENTATION('',(#14,#15),
#225);
#11=SHAPE_REPRESENTATION_RELATIONSHIP('SRR','None',#232,#12);
#12=ADVANCED_BREP_SHAPE_REPRESENTATION('',(#13),#224);
#13=MANIFOLD_SOLID_BREP('Volumenk\X\F6rper1',#127);
#14=STYLED_ITEM('',(#242),#125);
#15=STYLED_ITEM('',(#241),#13);
#16=CYLINDRICAL_SURFACE('',#151,2.5);
#17=FACE_OUTER_BOUND('',#24,.T.);
#18=FACE_OUTER_BOUND('',#25,.T.);
#19=FACE_OUTER_BOUND('',#26,.T.);
#20=FACE_OUTER_BOUND('',#27,.T.);
#21=FACE_OUTER_BOUND('',#28,.T.);
#22=FACE_OUTER_BOUND('',#29,.T.);
#23=FACE_OUTER_BOUND('',#30,.T.);
#24=EDGE_LOOP('',(#84,#85,#86,#87,#88));
#25=EDGE_LOOP('',(#89,#90,#91,#92));
#26=EDGE_LOOP('',(#93,#94,#95,#96));
#27=EDGE_LOOP('',(#97,#98,#99,#100));
#28=EDGE_LOOP('',(#101,#102,#103,#104));
#29=EDGE_LOOP('',(#105,#106,#107,#108));
#30=EDGE_LOOP('',(#109,#110,#111,#112,#113));
#31=CIRCLE('',#148,2.5);
#32=CIRCLE('',#152,2.5);
#33=LINE('',#193,#46);
#34=LINE('',#195,#47);
#35=LINE('',#197,#48);
#36=LINE('',#199,#49);
#37=LINE('',#204,#50);
#38=LINE('',#205,#51);
#39=LINE('',#206,#52);
#40=LINE('',#209,#53);
#41=LINE('',#210,#54);
#42=LINE('',#214,#55);
#43=LINE('',#217,#56);
#44=LINE('',#218,#57);
#45=LINE('',#220,#58);
#46=VECTOR('',#160,10.);
#47=VECTOR('',#161,10.);
#48=VECTOR('',#162,10.);
#49=VECTOR('',#163,10.);
#50=VECTOR('',#168,10.);
#51=VECTOR('',#169,10.);
#52=VECTOR('',#170,10.);
#53=VECTOR('',#173,10.);
#54=VECTOR('',#174,10.);
#55=VECTOR('',#179,10.);
#56=VECTOR('',#182,10.);
#57=VECTOR('',#183,10.);
#58=VECTOR('',#186,10.);
#59=VERTEX_POINT('',#191);
#60=VERTEX_POINT('',#192);
#61=VERTEX_POINT('',#194);
#62=VERTEX_POINT('',#196);
#63=VERTEX_POINT('',#198);
#64=VERTEX_POINT('',#202);
#65=VERTEX_POINT('',#203);
#66=VERTEX_POINT('',#208);
#67=VERTEX_POINT('',#212);
#68=VERTEX_POINT('',#216);
#69=EDGE_CURVE('',#59,#60,#33,.T.);
#70=EDGE_CURVE('',#61,#59,#34,.T.);
#71=EDGE_CURVE('',#62,#61,#35,.T.);
#72=EDGE_CURVE('',#63,#62,#36,.T.);
#73=EDGE_CURVE('',#60,#63,#31,.T.);
#74=EDGE_CURVE('',#64,#65,#37,.T.);
#75=EDGE_CURVE('',#62,#65,#38,.T.);
#76=EDGE_CURVE('',#64,#61,#39,.T.);
#77=EDGE_CURVE('',#65,#66,#40,.T.);
#78=EDGE_CURVE('',#63,#66,#41,.T.);
#79=EDGE_CURVE('',#66,#67,#32,.T.);
#80=EDGE_CURVE('',#60,#67,#42,.T.);
#81=EDGE_CURVE('',#67,#68,#43,.T.);
#82=EDGE_CURVE('',#59,#68,#44,.T.);
#83=EDGE_CURVE('',#68,#64,#45,.T.);
#84=ORIENTED_EDGE('',*,*,#69,.F.);
#85=ORIENTED_EDGE('',*,*,#70,.F.);
#86=ORIENTED_EDGE('',*,*,#71,.F.);
#87=ORIENTED_EDGE('',*,*,#72,.F.);
#88=ORIENTED_EDGE('',*,*,#73,.F.);
#89=ORIENTED_EDGE('',*,*,#74,.T.);
#90=ORIENTED_EDGE('',*,*,#75,.F.);
#91=ORIENTED_EDGE('',*,*,#71,.T.);
#92=ORIENTED_EDGE('',*,*,#76,.F.);
#93=ORIENTED_EDGE('',*,*,#77,.T.);
#94=ORIENTED_EDGE('',*,*,#78,.F.);
#95=ORIENTED_EDGE('',*,*,#72,.T.);
#96=ORIENTED_EDGE('',*,*,#75,.T.);
#97=ORIENTED_EDGE('',*,*,#79,.T.);
#98=ORIENTED_EDGE('',*,*,#80,.F.);
#99=ORIENTED_EDGE('',*,*,#73,.T.);
#100=ORIENTED_EDGE('',*,*,#78,.T.);
#101=ORIENTED_EDGE('',*,*,#81,.T.);
#102=ORIENTED_EDGE('',*,*,#82,.F.);
#103=ORIENTED_EDGE('',*,*,#69,.T.);
#104=ORIENTED_EDGE('',*,*,#80,.T.);
#105=ORIENTED_EDGE('',*,*,#83,.T.);
#106=ORIENTED_EDGE('',*,*,#76,.T.);
#107=ORIENTED_EDGE('',*,*,#70,.T.);
#108=ORIENTED_EDGE('',*,*,#82,.T.);
#109=ORIENTED_EDGE('',*,*,#74,.F.);
#110=ORIENTED_EDGE('',*,*,#83,.F.);
#111=ORIENTED_EDGE('',*,*,#81,.F.);
#112=ORIENTED_EDGE('',*,*,#79,.F.);
#113=ORIENTED_EDGE('',*,*,#77,.F.);
#114=PLANE('',#147);
#115=PLANE('',#149);
#116=PLANE('',#150);
#117=PLANE('',#153);
#118=PLANE('',#154);
#119=PLANE('',#155);
#120=ADVANCED_FACE('',(#17),#114,.F.);
#121=ADVANCED_FACE('',(#18),#115,.T.);
#122=ADVANCED_FACE('',(#19),#116,.T.);
#123=ADVANCED_FACE('',(#20),#16,.T.);
#124=ADVANCED_FACE('',(#21),#117,.T.);
#125=ADVANCED_FACE('',(#22),#118,.T.);
#126=ADVANCED_FACE('',(#23),#119,.T.);
#127=CLOSED_SHELL('',(#120,#121,#122,#123,#124,#125,#126));
#128=DERIVED_UNIT_ELEMENT(#130,1.);
#129=DERIVED_UNIT_ELEMENT(#227,3.);
#130=(
MASS_UNIT()
NAMED_UNIT(*)
SI_UNIT($,.GRAM.)
);
#131=DERIVED_UNIT((#128,#129));
#132=MEASURE_REPRESENTATION_ITEM('density measure',
POSITIVE_RATIO_MEASURE(8.03),#131);
#133=PROPERTY_DEFINITION_REPRESENTATION(#138,#135);
#134=PROPERTY_DEFINITION_REPRESENTATION(#139,#136);
#135=REPRESENTATION('material name',(#137),#224);
#136=REPRESENTATION('density',(#132),#224);
#137=DESCRIPTIVE_REPRESENTATION_ITEM('1.4301','1.4301');
#138=PROPERTY_DEFINITION('material property','material name',#234);
#139=PROPERTY_DEFINITION('material property','density of part',#234);
#140=DATE_TIME_ROLE('creation_date');
#141=APPLIED_DATE_AND_TIME_ASSIGNMENT(#142,#140,(#234));
#142=DATE_AND_TIME(#143,#144);
#143=CALENDAR_DATE(2011,19,10);
#144=LOCAL_TIME(0,0,0.,#145);
#145=COORDINATED_UNIVERSAL_TIME_OFFSET(0,0,.BEHIND.);
#146=AXIS2_PLACEMENT_3D('placement',#189,#156,#157);
#147=AXIS2_PLACEMENT_3D('',#190,#158,#159);
#148=AXIS2_PLACEMENT_3D('',#200,#164,#165);
#149=AXIS2_PLACEMENT_3D('',#201,#166,#167);
#150=AXIS2_PLACEMENT_3D('',#207,#171,#172);
#151=AXIS2_PLACEMENT_3D('',#211,#175,#176);
#152=AXIS2_PLACEMENT_3D('',#213,#177,#178);
#153=AXIS2_PLACEMENT_3D('',#215,#180,#181);
#154=AXIS2_PLACEMENT_3D('',#219,#184,#185);
#155=AXIS2_PLACEMENT_3D('',#221,#187,#188);
#156=DIRECTION('axis',(0.,0.,1.));
#157=DIRECTION('refdir',(1.,0.,0.));
#158=DIRECTION('center_axis',(0.,0.,1.));
#159=DIRECTION('ref_axis',(1.,0.,0.));
#160=DIRECTION('',(-1.58603289232165E-16,1.,0.));
#161=DIRECTION('',(1.,1.2335811384724E-16,0.));
#162=DIRECTION('',(0.,-1.,0.));
#163=DIRECTION('',(-1.,0.,0.));
#164=DIRECTION('center_axis',(0.,0.,1.));
#165=DIRECTION('ref_axis',(1.,1.11022302462516E-16,0.));
#166=DIRECTION('center_axis',(-1.,0.,0.));
#167=DIRECTION('ref_axis',(0.,0.,1.));
#168=DIRECTION('',(0.,1.,0.));
#169=DIRECTION('',(0.,0.,1.));
#170=DIRECTION('',(0.,0.,-1.));
#171=DIRECTION('center_axis',(0.,1.,0.));
#172=DIRECTION('ref_axis',(0.,0.,1.));
#173=DIRECTION('',(1.,0.,0.));
#174=DIRECTION('',(0.,0.,1.));
#175=DIRECTION('center_axis',(0.,0.,1.));
#176=DIRECTION('ref_axis',(1.,1.11022302462516E-16,0.));
#177=DIRECTION('center_axis',(0.,0.,-1.));
#178=DIRECTION('ref_axis',(1.,1.11022302462516E-16,0.));
#179=DIRECTION('',(0.,0.,1.));
#180=DIRECTION('center_axis',(1.,1.58603289232165E-16,0.));
#181=DIRECTION('ref_axis',(0.,0.,-1.));
#182=DIRECTION('',(1.58603289232165E-16,-1.,0.));
#183=DIRECTION('',(0.,0.,1.));
#184=DIRECTION('center_axis',(1.2335811384724E-16,-1.,0.));
#185=DIRECTION('ref_axis',(0.,0.,-1.));
#186=DIRECTION('',(-1.,-1.2335811384724E-16,0.));
#187=DIRECTION('center_axis',(0.,0.,1.));
#188=DIRECTION('ref_axis',(1.,0.,0.));
#189=CARTESIAN_POINT('',(0.,0.,0.));
#190=CARTESIAN_POINT('Origin',(-0.186837228920808,-0.131196675615348,-50.));
#191=CARTESIAN_POINT('',(4.5,-3.,-50.));
#192=CARTESIAN_POINT('',(4.5,0.500000000000001,-50.));
#193=CARTESIAN_POINT('',(4.5,-3.,-50.));
#194=CARTESIAN_POINT('',(-4.5,-3.,-50.));
#195=CARTESIAN_POINT('',(-4.5,-3.,-50.));
#196=CARTESIAN_POINT('',(-4.5,3.,-50.));
#197=CARTESIAN_POINT('',(-4.5,3.,-50.));
#198=CARTESIAN_POINT('',(2.,3.,-50.));
#199=CARTESIAN_POINT('',(2.,3.,-50.));
#200=CARTESIAN_POINT('Origin',(2.,0.500000000000001,-50.));
#201=CARTESIAN_POINT('Origin',(-4.5,-3.,0.));
#202=CARTESIAN_POINT('',(-4.5,-3.,50.));
#203=CARTESIAN_POINT('',(-4.5,3.,50.));
#204=CARTESIAN_POINT('',(-4.5,3.,50.));
#205=CARTESIAN_POINT('',(-4.5,3.,0.));
#206=CARTESIAN_POINT('',(-4.5,-3.,0.));
#207=CARTESIAN_POINT('Origin',(-4.5,3.,0.));
#208=CARTESIAN_POINT('',(2.,3.,50.));
#209=CARTESIAN_POINT('',(2.,3.,50.));
#210=CARTESIAN_POINT('',(2.,3.,0.));
#211=CARTESIAN_POINT('Origin',(2.,0.500000000000001,0.));
#212=CARTESIAN_POINT('',(4.5,0.500000000000001,50.));
#213=CARTESIAN_POINT('Origin',(2.,0.500000000000001,50.));
#214=CARTESIAN_POINT('',(4.5,0.500000000000001,0.));
#215=CARTESIAN_POINT('Origin',(4.5,0.500000000000001,0.));
#216=CARTESIAN_POINT('',(4.5,-3.,50.));
#217=CARTESIAN_POINT('',(4.5,-3.,50.));
#218=CARTESIAN_POINT('',(4.5,-3.,0.));
#219=CARTESIAN_POINT('Origin',(4.5,-3.,0.));
#220=CARTESIAN_POINT('',(-4.5,-3.,50.));
#221=CARTESIAN_POINT('Origin',(-0.186837228920808,-0.131196675615348,50.));
#222=UNCERTAINTY_MEASURE_WITH_UNIT(LENGTH_MEASURE(0.01),#226,
'DISTANCE_ACCURACY_VALUE',
'Maximum model space distance between geometric entities at asserted c
onnectivities');
#223=UNCERTAINTY_MEASURE_WITH_UNIT(LENGTH_MEASURE(0.01),#226,
'DISTANCE_ACCURACY_VALUE',
'Maximum model space distance between geometric entities at asserted c
onnectivities');
#224=(
GEOMETRIC_REPRESENTATION_CONTEXT(3)
GLOBAL_UNCERTAINTY_ASSIGNED_CONTEXT((#222))
GLOBAL_UNIT_ASSIGNED_CONTEXT((#226,#228,#229))
REPRESENTATION_CONTEXT('','3D')
);
#225=(
GEOMETRIC_REPRESENTATION_CONTEXT(3)
GLOBAL_UNCERTAINTY_ASSIGNED_CONTEXT((#223))
GLOBAL_UNIT_ASSIGNED_CONTEXT((#226,#228,#229))
REPRESENTATION_CONTEXT('','3D')
);
#226=(
LENGTH_UNIT()
NAMED_UNIT(*)
SI_UNIT(.MILLI.,.METRE.)
);
#227=(
LENGTH_UNIT()
NAMED_UNIT(*)
SI_UNIT(.CENTI.,.METRE.)
);
#228=(
NAMED_UNIT(*)
PLANE_ANGLE_UNIT()
SI_UNIT($,.RADIAN.)
);
#229=(
NAMED_UNIT(*)
SI_UNIT($,.STERADIAN.)
SOLID_ANGLE_UNIT()
);
#230=SHAPE_DEFINITION_REPRESENTATION(#231,#232);
#231=PRODUCT_DEFINITION_SHAPE('',$,#234);
#232=SHAPE_REPRESENTATION('',(#146),#224);
#233=PRODUCT_DEFINITION_CONTEXT('part definition',#238,'design');
#234=PRODUCT_DEFINITION('WKZ-0023','E_3_01_01_02_00_WKZ-0023',#235,#233);
#235=PRODUCT_DEFINITION_FORMATION('',$,#240);
#236=PRODUCT_RELATED_PRODUCT_CATEGORY('E_3_01_01_02_00_WKZ-0023',
'E_3_01_01_02_00_WKZ-0023',(#240));
#237=APPLICATION_PROTOCOL_DEFINITION('international standard',
'automotive_design',2009,#238);
#238=APPLICATION_CONTEXT(
'Core Data for Automotive Mechanical Design Process');
#239=PRODUCT_CONTEXT('part definition',#238,'mechanical');
#240=PRODUCT('WKZ-0023','E_3_01_01_02_00_WKZ-0023',$,(#239));
#241=PRESENTATION_STYLE_ASSIGNMENT((#243));
#242=PRESENTATION_STYLE_ASSIGNMENT((#244));
#243=SURFACE_STYLE_USAGE(.BOTH.,#247);
#244=SURFACE_STYLE_USAGE(.BOTH.,#248);
#245=SURFACE_STYLE_RENDERING_WITH_PROPERTIES($,#255,(#246));
#246=SURFACE_STYLE_TRANSPARENT(0.);
#247=SURFACE_SIDE_STYLE('',(#249,#245));
#248=SURFACE_SIDE_STYLE('',(#250));
#249=SURFACE_STYLE_FILL_AREA(#251);
#250=SURFACE_STYLE_FILL_AREA(#252);
#251=FILL_AREA_STYLE('',(#253));
#252=FILL_AREA_STYLE('',(#254));
#253=FILL_AREA_STYLE_COLOUR('',#255);
#254=FILL_AREA_STYLE_COLOUR('',#256);
#255=COLOUR_RGB('',0.92156862745098,0.92156862745098,0.92156862745098);
#256=COLOUR_RGB('',0.16078431372549,0.16078431372549,0.16078431372549);
ENDSEC;
END-ISO-10303-21;
