ISO-10303-21;
HEADER;
/* Generated by software containing ST-Developer
 * from STEP Tools, Inc. (www.steptools.com) 
 */

FILE_DESCRIPTION(
/* description */ (''),
/* implementation_level */ '2;1');

FILE_NAME(
/* name */ 
'H:\\Eigene Dateien\\CAD Workspace Vault\\CAD\\E_3_Nocken\\E_3_01_Aufs
chwei\X\DFnocke\\01_Rund\\E_3_01_01_01_00_WKZ-0024.stp',
/* time_stamp */ '2024-05-16T11:33:55+02:00',
/* author */ ('dfischer'),
/* organization */ (''),
/* preprocessor_version */ 'ST-DEVELOPER v18.1',
/* originating_system */ 'Autodesk Inventor 2021',
/* authorisation */ '');

FILE_SCHEMA (('AUTOMOTIVE_DESIGN { 1 0 10303 214 3 1 1 }'));
ENDSEC;

DATA;
#10=MECHANICAL_DESIGN_GEOMETRIC_PRESENTATION_REPRESENTATION('',(#15,#16),
#324);
#11=SHAPE_REPRESENTATION_RELATIONSHIP('SRR','None',#331,#12);
#12=ADVANCED_BREP_SHAPE_REPRESENTATION('',(#13),#323);
#13=MANIFOLD_SOLID_BREP('Volumenk\X\F6rper1',#190);
#14=CYLINDRICAL_SURFACE('',#217,2.);
#15=STYLED_ITEM('',(#341),#182);
#16=STYLED_ITEM('',(#340),#13);
#17=FACE_OUTER_BOUND('',#27,.T.);
#18=FACE_OUTER_BOUND('',#28,.T.);
#19=FACE_OUTER_BOUND('',#29,.T.);
#20=FACE_OUTER_BOUND('',#30,.T.);
#21=FACE_OUTER_BOUND('',#31,.T.);
#22=FACE_OUTER_BOUND('',#32,.T.);
#23=FACE_OUTER_BOUND('',#33,.T.);
#24=FACE_OUTER_BOUND('',#34,.T.);
#25=FACE_OUTER_BOUND('',#35,.T.);
#26=FACE_OUTER_BOUND('',#36,.T.);
#27=EDGE_LOOP('',(#123,#124,#125,#126,#127,#128,#129,#130));
#28=EDGE_LOOP('',(#131,#132,#133,#134));
#29=EDGE_LOOP('',(#135,#136,#137,#138));
#30=EDGE_LOOP('',(#139,#140,#141,#142));
#31=EDGE_LOOP('',(#143,#144,#145,#146));
#32=EDGE_LOOP('',(#147,#148,#149,#150));
#33=EDGE_LOOP('',(#151,#152,#153,#154));
#34=EDGE_LOOP('',(#155,#156,#157,#158));
#35=EDGE_LOOP('',(#159,#160,#161,#162));
#36=EDGE_LOOP('',(#163,#164,#165,#166,#167,#168,#169,#170));
#37=CIRCLE('',#211,2.);
#38=CIRCLE('',#218,2.);
#39=LINE('',#274,#61);
#40=LINE('',#276,#62);
#41=LINE('',#278,#63);
#42=LINE('',#280,#64);
#43=LINE('',#282,#65);
#44=LINE('',#284,#66);
#45=LINE('',#286,#67);
#46=LINE('',#291,#68);
#47=LINE('',#292,#69);
#48=LINE('',#293,#70);
#49=LINE('',#296,#71);
#50=LINE('',#297,#72);
#51=LINE('',#300,#73);
#52=LINE('',#301,#74);
#53=LINE('',#304,#75);
#54=LINE('',#305,#76);
#55=LINE('',#308,#77);
#56=LINE('',#309,#78);
#57=LINE('',#313,#79);
#58=LINE('',#316,#80);
#59=LINE('',#317,#81);
#60=LINE('',#319,#82);
#61=VECTOR('',#226,10.);
#62=VECTOR('',#227,10.);
#63=VECTOR('',#228,10.);
#64=VECTOR('',#229,10.);
#65=VECTOR('',#230,10.);
#66=VECTOR('',#231,10.);
#67=VECTOR('',#232,10.);
#68=VECTOR('',#237,10.);
#69=VECTOR('',#238,10.);
#70=VECTOR('',#239,10.);
#71=VECTOR('',#242,10.);
#72=VECTOR('',#243,10.);
#73=VECTOR('',#246,10.);
#74=VECTOR('',#247,10.);
#75=VECTOR('',#250,10.);
#76=VECTOR('',#251,10.);
#77=VECTOR('',#254,10.);
#78=VECTOR('',#255,10.);
#79=VECTOR('',#260,10.);
#80=VECTOR('',#263,10.);
#81=VECTOR('',#264,10.);
#82=VECTOR('',#267,10.);
#83=VERTEX_POINT('',#272);
#84=VERTEX_POINT('',#273);
#85=VERTEX_POINT('',#275);
#86=VERTEX_POINT('',#277);
#87=VERTEX_POINT('',#279);
#88=VERTEX_POINT('',#281);
#89=VERTEX_POINT('',#283);
#90=VERTEX_POINT('',#285);
#91=VERTEX_POINT('',#289);
#92=VERTEX_POINT('',#290);
#93=VERTEX_POINT('',#295);
#94=VERTEX_POINT('',#299);
#95=VERTEX_POINT('',#303);
#96=VERTEX_POINT('',#307);
#97=VERTEX_POINT('',#311);
#98=VERTEX_POINT('',#315);
#99=EDGE_CURVE('',#83,#84,#39,.T.);
#100=EDGE_CURVE('',#85,#83,#40,.T.);
#101=EDGE_CURVE('',#86,#85,#41,.T.);
#102=EDGE_CURVE('',#87,#86,#42,.T.);
#103=EDGE_CURVE('',#88,#87,#43,.T.);
#104=EDGE_CURVE('',#89,#88,#44,.T.);
#105=EDGE_CURVE('',#90,#89,#45,.T.);
#106=EDGE_CURVE('',#84,#90,#37,.T.);
#107=EDGE_CURVE('',#91,#92,#46,.T.);
#108=EDGE_CURVE('',#92,#86,#47,.T.);
#109=EDGE_CURVE('',#91,#85,#48,.T.);
#110=EDGE_CURVE('',#92,#93,#49,.T.);
#111=EDGE_CURVE('',#93,#87,#50,.T.);
#112=EDGE_CURVE('',#93,#94,#51,.T.);
#113=EDGE_CURVE('',#94,#88,#52,.T.);
#114=EDGE_CURVE('',#94,#95,#53,.T.);
#115=EDGE_CURVE('',#95,#89,#54,.T.);
#116=EDGE_CURVE('',#95,#96,#55,.T.);
#117=EDGE_CURVE('',#96,#90,#56,.T.);
#118=EDGE_CURVE('',#96,#97,#38,.T.);
#119=EDGE_CURVE('',#97,#84,#57,.T.);
#120=EDGE_CURVE('',#97,#98,#58,.T.);
#121=EDGE_CURVE('',#83,#98,#59,.T.);
#122=EDGE_CURVE('',#98,#91,#60,.T.);
#123=ORIENTED_EDGE('',*,*,#99,.F.);
#124=ORIENTED_EDGE('',*,*,#100,.F.);
#125=ORIENTED_EDGE('',*,*,#101,.F.);
#126=ORIENTED_EDGE('',*,*,#102,.F.);
#127=ORIENTED_EDGE('',*,*,#103,.F.);
#128=ORIENTED_EDGE('',*,*,#104,.F.);
#129=ORIENTED_EDGE('',*,*,#105,.F.);
#130=ORIENTED_EDGE('',*,*,#106,.F.);
#131=ORIENTED_EDGE('',*,*,#107,.T.);
#132=ORIENTED_EDGE('',*,*,#108,.T.);
#133=ORIENTED_EDGE('',*,*,#101,.T.);
#134=ORIENTED_EDGE('',*,*,#109,.F.);
#135=ORIENTED_EDGE('',*,*,#110,.T.);
#136=ORIENTED_EDGE('',*,*,#111,.T.);
#137=ORIENTED_EDGE('',*,*,#102,.T.);
#138=ORIENTED_EDGE('',*,*,#108,.F.);
#139=ORIENTED_EDGE('',*,*,#112,.T.);
#140=ORIENTED_EDGE('',*,*,#113,.T.);
#141=ORIENTED_EDGE('',*,*,#103,.T.);
#142=ORIENTED_EDGE('',*,*,#111,.F.);
#143=ORIENTED_EDGE('',*,*,#114,.T.);
#144=ORIENTED_EDGE('',*,*,#115,.T.);
#145=ORIENTED_EDGE('',*,*,#104,.T.);
#146=ORIENTED_EDGE('',*,*,#113,.F.);
#147=ORIENTED_EDGE('',*,*,#116,.T.);
#148=ORIENTED_EDGE('',*,*,#117,.T.);
#149=ORIENTED_EDGE('',*,*,#105,.T.);
#150=ORIENTED_EDGE('',*,*,#115,.F.);
#151=ORIENTED_EDGE('',*,*,#118,.T.);
#152=ORIENTED_EDGE('',*,*,#119,.T.);
#153=ORIENTED_EDGE('',*,*,#106,.T.);
#154=ORIENTED_EDGE('',*,*,#117,.F.);
#155=ORIENTED_EDGE('',*,*,#120,.T.);
#156=ORIENTED_EDGE('',*,*,#121,.F.);
#157=ORIENTED_EDGE('',*,*,#99,.T.);
#158=ORIENTED_EDGE('',*,*,#119,.F.);
#159=ORIENTED_EDGE('',*,*,#122,.T.);
#160=ORIENTED_EDGE('',*,*,#109,.T.);
#161=ORIENTED_EDGE('',*,*,#100,.T.);
#162=ORIENTED_EDGE('',*,*,#121,.T.);
#163=ORIENTED_EDGE('',*,*,#107,.F.);
#164=ORIENTED_EDGE('',*,*,#122,.F.);
#165=ORIENTED_EDGE('',*,*,#120,.F.);
#166=ORIENTED_EDGE('',*,*,#118,.F.);
#167=ORIENTED_EDGE('',*,*,#116,.F.);
#168=ORIENTED_EDGE('',*,*,#114,.F.);
#169=ORIENTED_EDGE('',*,*,#112,.F.);
#170=ORIENTED_EDGE('',*,*,#110,.F.);
#171=PLANE('',#210);
#172=PLANE('',#212);
#173=PLANE('',#213);
#174=PLANE('',#214);
#175=PLANE('',#215);
#176=PLANE('',#216);
#177=PLANE('',#219);
#178=PLANE('',#220);
#179=PLANE('',#221);
#180=ADVANCED_FACE('',(#17),#171,.F.);
#181=ADVANCED_FACE('',(#18),#172,.T.);
#182=ADVANCED_FACE('',(#19),#173,.T.);
#183=ADVANCED_FACE('',(#20),#174,.T.);
#184=ADVANCED_FACE('',(#21),#175,.T.);
#185=ADVANCED_FACE('',(#22),#176,.T.);
#186=ADVANCED_FACE('',(#23),#14,.T.);
#187=ADVANCED_FACE('',(#24),#177,.T.);
#188=ADVANCED_FACE('',(#25),#178,.T.);
#189=ADVANCED_FACE('',(#26),#179,.T.);
#190=CLOSED_SHELL('',(#180,#181,#182,#183,#184,#185,#186,#187,#188,#189));
#191=DERIVED_UNIT_ELEMENT(#193,1.);
#192=DERIVED_UNIT_ELEMENT(#326,3.);
#193=(
MASS_UNIT()
NAMED_UNIT(*)
SI_UNIT($,.GRAM.)
);
#194=DERIVED_UNIT((#191,#192));
#195=MEASURE_REPRESENTATION_ITEM('density measure',
POSITIVE_RATIO_MEASURE(8.03),#194);
#196=PROPERTY_DEFINITION_REPRESENTATION(#201,#198);
#197=PROPERTY_DEFINITION_REPRESENTATION(#202,#199);
#198=REPRESENTATION('material name',(#200),#323);
#199=REPRESENTATION('density',(#195),#323);
#200=DESCRIPTIVE_REPRESENTATION_ITEM('1.4301','1.4301');
#201=PROPERTY_DEFINITION('material property','material name',#333);
#202=PROPERTY_DEFINITION('material property','density of part',#333);
#203=DATE_TIME_ROLE('creation_date');
#204=APPLIED_DATE_AND_TIME_ASSIGNMENT(#205,#203,(#333));
#205=DATE_AND_TIME(#206,#207);
#206=CALENDAR_DATE(2011,19,10);
#207=LOCAL_TIME(0,0,0.,#208);
#208=COORDINATED_UNIVERSAL_TIME_OFFSET(0,0,.BEHIND.);
#209=AXIS2_PLACEMENT_3D('placement',#270,#222,#223);
#210=AXIS2_PLACEMENT_3D('',#271,#224,#225);
#211=AXIS2_PLACEMENT_3D('',#287,#233,#234);
#212=AXIS2_PLACEMENT_3D('',#288,#235,#236);
#213=AXIS2_PLACEMENT_3D('',#294,#240,#241);
#214=AXIS2_PLACEMENT_3D('',#298,#244,#245);
#215=AXIS2_PLACEMENT_3D('',#302,#248,#249);
#216=AXIS2_PLACEMENT_3D('',#306,#252,#253);
#217=AXIS2_PLACEMENT_3D('',#310,#256,#257);
#218=AXIS2_PLACEMENT_3D('',#312,#258,#259);
#219=AXIS2_PLACEMENT_3D('',#314,#261,#262);
#220=AXIS2_PLACEMENT_3D('',#318,#265,#266);
#221=AXIS2_PLACEMENT_3D('',#320,#268,#269);
#222=DIRECTION('axis',(0.,0.,1.));
#223=DIRECTION('refdir',(1.,0.,0.));
#224=DIRECTION('center_axis',(0.,0.,1.));
#225=DIRECTION('ref_axis',(1.,0.,0.));
#226=DIRECTION('',(4.31753398465339E-16,1.,0.));
#227=DIRECTION('',(1.,0.,0.));
#228=DIRECTION('',(5.55111512312578E-16,1.,0.));
#229=DIRECTION('',(1.,0.,0.));
#230=DIRECTION('',(5.55111512312578E-16,-1.,0.));
#231=DIRECTION('',(1.,0.,0.));
#232=DIRECTION('',(4.93432455388959E-16,-1.,0.));
#233=DIRECTION('center_axis',(0.,0.,1.));
#234=DIRECTION('ref_axis',(1.38777878078145E-16,-1.,0.));
#235=DIRECTION('center_axis',(1.,-5.55111512312578E-16,0.));
#236=DIRECTION('ref_axis',(0.,0.,-1.));
#237=DIRECTION('',(-5.55111512312578E-16,-1.,0.));
#238=DIRECTION('',(0.,0.,-1.));
#239=DIRECTION('',(0.,0.,-1.));
#240=DIRECTION('center_axis',(0.,-1.,0.));
#241=DIRECTION('ref_axis',(0.,0.,-1.));
#242=DIRECTION('',(-1.,0.,0.));
#243=DIRECTION('',(0.,0.,-1.));
#244=DIRECTION('center_axis',(-1.,-5.55111512312578E-16,0.));
#245=DIRECTION('ref_axis',(0.,0.,1.));
#246=DIRECTION('',(-5.55111512312578E-16,1.,0.));
#247=DIRECTION('',(0.,0.,-1.));
#248=DIRECTION('center_axis',(0.,-1.,0.));
#249=DIRECTION('ref_axis',(0.,0.,-1.));
#250=DIRECTION('',(-1.,0.,0.));
#251=DIRECTION('',(0.,0.,-1.));
#252=DIRECTION('center_axis',(-1.,-4.93432455388959E-16,0.));
#253=DIRECTION('ref_axis',(0.,0.,1.));
#254=DIRECTION('',(-4.93432455388959E-16,1.,0.));
#255=DIRECTION('',(0.,0.,-1.));
#256=DIRECTION('center_axis',(0.,0.,1.));
#257=DIRECTION('ref_axis',(-1.,0.,0.));
#258=DIRECTION('center_axis',(0.,0.,-1.));
#259=DIRECTION('ref_axis',(-1.,0.,0.));
#260=DIRECTION('',(0.,0.,-1.));
#261=DIRECTION('center_axis',(1.,-4.31753398465339E-16,0.));
#262=DIRECTION('ref_axis',(0.,0.,-1.));
#263=DIRECTION('',(-4.31753398465339E-16,-1.,0.));
#264=DIRECTION('',(0.,0.,1.));
#265=DIRECTION('center_axis',(0.,-1.,0.));
#266=DIRECTION('ref_axis',(0.,0.,-1.));
#267=DIRECTION('',(-1.,0.,0.));
#268=DIRECTION('center_axis',(0.,0.,1.));
#269=DIRECTION('ref_axis',(1.,0.,0.));
#270=CARTESIAN_POINT('',(0.,0.,0.));
#271=CARTESIAN_POINT('Origin',(-2.08166817117217E-16,3.20437305035453,-50.));
#272=CARTESIAN_POINT('',(2.,0.5,-50.));
#273=CARTESIAN_POINT('',(2.,5.,-50.));
#274=CARTESIAN_POINT('',(2.,5.,-50.));
#275=CARTESIAN_POINT('',(1.25,0.5,-50.));
#276=CARTESIAN_POINT('',(2.,0.5,-50.));
#277=CARTESIAN_POINT('',(1.25,0.,-50.));
#278=CARTESIAN_POINT('',(1.25,0.5,-50.));
#279=CARTESIAN_POINT('',(-1.25,0.,-50.));
#280=CARTESIAN_POINT('',(1.25,0.,-50.));
#281=CARTESIAN_POINT('',(-1.25,0.5,-50.));
#282=CARTESIAN_POINT('',(-1.25,0.,-50.));
#283=CARTESIAN_POINT('',(-2.,0.5,-50.));
#284=CARTESIAN_POINT('',(-1.25,0.5,-50.));
#285=CARTESIAN_POINT('',(-2.,5.,-50.));
#286=CARTESIAN_POINT('',(-2.,0.5,-50.));
#287=CARTESIAN_POINT('Origin',(1.11022302462516E-15,5.,-50.));
#288=CARTESIAN_POINT('Origin',(1.25,0.5,0.));
#289=CARTESIAN_POINT('',(1.25,0.5,50.));
#290=CARTESIAN_POINT('',(1.25,0.,50.));
#291=CARTESIAN_POINT('',(1.25,0.5,50.));
#292=CARTESIAN_POINT('',(1.25,0.,0.));
#293=CARTESIAN_POINT('',(1.25,0.5,0.));
#294=CARTESIAN_POINT('Origin',(1.25,0.,0.));
#295=CARTESIAN_POINT('',(-1.25,0.,50.));
#296=CARTESIAN_POINT('',(1.25,0.,50.));
#297=CARTESIAN_POINT('',(-1.25,0.,0.));
#298=CARTESIAN_POINT('Origin',(-1.25,0.,0.));
#299=CARTESIAN_POINT('',(-1.25,0.5,50.));
#300=CARTESIAN_POINT('',(-1.25,0.,50.));
#301=CARTESIAN_POINT('',(-1.25,0.5,0.));
#302=CARTESIAN_POINT('Origin',(-1.25,0.5,0.));
#303=CARTESIAN_POINT('',(-2.,0.5,50.));
#304=CARTESIAN_POINT('',(-1.25,0.5,50.));
#305=CARTESIAN_POINT('',(-2.,0.5,0.));
#306=CARTESIAN_POINT('Origin',(-2.,0.5,0.));
#307=CARTESIAN_POINT('',(-2.,5.,50.));
#308=CARTESIAN_POINT('',(-2.,0.5,50.));
#309=CARTESIAN_POINT('',(-2.,5.,0.));
#310=CARTESIAN_POINT('Origin',(-1.11022302462516E-15,5.,0.));
#311=CARTESIAN_POINT('',(2.,5.,50.));
#312=CARTESIAN_POINT('Origin',(-1.11022302462516E-15,5.,50.));
#313=CARTESIAN_POINT('',(2.,5.,0.));
#314=CARTESIAN_POINT('Origin',(2.,5.,0.));
#315=CARTESIAN_POINT('',(2.,0.5,50.));
#316=CARTESIAN_POINT('',(2.,5.,50.));
#317=CARTESIAN_POINT('',(2.,0.5,0.));
#318=CARTESIAN_POINT('Origin',(2.,0.5,0.));
#319=CARTESIAN_POINT('',(2.,0.5,50.));
#320=CARTESIAN_POINT('Origin',(-2.34187669256869E-16,3.20437305035453,50.));
#321=UNCERTAINTY_MEASURE_WITH_UNIT(LENGTH_MEASURE(0.01),#325,
'DISTANCE_ACCURACY_VALUE',
'Maximum model space distance between geometric entities at asserted c
onnectivities');
#322=UNCERTAINTY_MEASURE_WITH_UNIT(LENGTH_MEASURE(0.01),#325,
'DISTANCE_ACCURACY_VALUE',
'Maximum model space distance between geometric entities at asserted c
onnectivities');
#323=(
GEOMETRIC_REPRESENTATION_CONTEXT(3)
GLOBAL_UNCERTAINTY_ASSIGNED_CONTEXT((#321))
GLOBAL_UNIT_ASSIGNED_CONTEXT((#325,#327,#328))
REPRESENTATION_CONTEXT('','3D')
);
#324=(
GEOMETRIC_REPRESENTATION_CONTEXT(3)
GLOBAL_UNCERTAINTY_ASSIGNED_CONTEXT((#322))
GLOBAL_UNIT_ASSIGNED_CONTEXT((#325,#327,#328))
REPRESENTATION_CONTEXT('','3D')
);
#325=(
LENGTH_UNIT()
NAMED_UNIT(*)
SI_UNIT(.MILLI.,.METRE.)
);
#326=(
LENGTH_UNIT()
NAMED_UNIT(*)
SI_UNIT(.CENTI.,.METRE.)
);
#327=(
NAMED_UNIT(*)
PLANE_ANGLE_UNIT()
SI_UNIT($,.RADIAN.)
);
#328=(
NAMED_UNIT(*)
SI_UNIT($,.STERADIAN.)
SOLID_ANGLE_UNIT()
);
#329=SHAPE_DEFINITION_REPRESENTATION(#330,#331);
#330=PRODUCT_DEFINITION_SHAPE('',$,#333);
#331=SHAPE_REPRESENTATION('',(#209),#323);
#332=PRODUCT_DEFINITION_CONTEXT('part definition',#337,'design');
#333=PRODUCT_DEFINITION('WKZ-0024','E_3_01_01_01_00_WKZ-0024',#334,#332);
#334=PRODUCT_DEFINITION_FORMATION('',$,#339);
#335=PRODUCT_RELATED_PRODUCT_CATEGORY('E_3_01_01_01_00_WKZ-0024',
'E_3_01_01_01_00_WKZ-0024',(#339));
#336=APPLICATION_PROTOCOL_DEFINITION('international standard',
'automotive_design',2009,#337);
#337=APPLICATION_CONTEXT(
'Core Data for Automotive Mechanical Design Process');
#338=PRODUCT_CONTEXT('part definition',#337,'mechanical');
#339=PRODUCT('WKZ-0024','E_3_01_01_01_00_WKZ-0024',$,(#338));
#340=PRESENTATION_STYLE_ASSIGNMENT((#342));
#341=PRESENTATION_STYLE_ASSIGNMENT((#343));
#342=SURFACE_STYLE_USAGE(.BOTH.,#346);
#343=SURFACE_STYLE_USAGE(.BOTH.,#347);
#344=SURFACE_STYLE_RENDERING_WITH_PROPERTIES($,#354,(#345));
#345=SURFACE_STYLE_TRANSPARENT(0.);
#346=SURFACE_SIDE_STYLE('',(#348,#344));
#347=SURFACE_SIDE_STYLE('',(#349));
#348=SURFACE_STYLE_FILL_AREA(#350);
#349=SURFACE_STYLE_FILL_AREA(#351);
#350=FILL_AREA_STYLE('',(#352));
#351=FILL_AREA_STYLE('',(#353));
#352=FILL_AREA_STYLE_COLOUR('',#354);
#353=FILL_AREA_STYLE_COLOUR('',#355);
#354=COLOUR_RGB('',0.92156862745098,0.92156862745098,0.92156862745098);
#355=COLOUR_RGB('',0.16078431372549,0.16078431372549,0.16078431372549);
ENDSEC;
END-ISO-10303-21;
